Log in

One click and you are in

Login with Facebook Login with Google

Why sign up and log in

Guitar Tabs Explorer
Phish chords for Back on the train

Guitar chords with lyrics

Listen to the song to hear the strumming patterns on the
verses, I've just listed the chords in the order they're
played in. There are several other guitars noodling around
as well so feel free to throw in some licks especially on
the A chord diagramF7F7 chord.

The solo section is broken up into logical licks, once again
listen to the song for timing. Lots of twangy bends that look
tricky because of the tab symbols but are really not difficult.
Also lots of artificial harmonics marked with brackets that
are notes picked with the thumb brushing up against the string.
Add some nice warm tube amp distortion to really bring them out.


          A chord diagramF7F7                   A chord diagramBb7Bb7                  A chord diagramAb7Ab7
      x x 3 2 4 1          x x 8 7 9 6          x x 6 5 7 4

        A chord diagramEbadd9Ebadd9                Bb7I
      x x 5 3 6 3          x x 3 1 3 1


Q=160
4/4

Verses
|-1--------|-1--------|-1--------|-6--------|-4--------|-1----|
|-4--------|-4--------|-4--------|-9--------|-7--------|-4----|
|-2--------|-2--------|-2--------|-7--------|-5--------|-2----|
|-3--------|-3--------|-3--------|-8--------|-6--------|-3----|
|----------|----------|----------|----------|----------|------|
|----------|----------|----------|----------|----------|------|


|-6--------|-4--------|-3--------|-1--------|-1--------|-1----|
|-9--------|-7--------|-6--------|-3--------|-4--------|-4----|
|-7--------|-5--------|-3--------|-1--------|-2--------|-2----|
|-8--------|-6--------|-5--------|-3--------|-3--------|-3----|
|----------|----------|----------|----------|----------|------|
|----------|----------|----------|----------|----------|------|

  Solo
|----------------------------------------------|
|---4---4-----4----4-4-----4----4-4-----4----4-|
|-5---4-4pb5==4pb5r4-4pb5==4pb5r4-4pb5==4pb5r4-|
|----------------------------------------------|
|----------------------------------------------|
|----------------------------------------------|


|----------------------------------------|
|----------------------------------------|
|-------[1]---------------------1pb2r1---|
|-(0)-3-----[1]-[3]---------1-3--------3-|
|-------------------[2]-[3]--------------|
|----------------------------------------|


|-------------------------------------|
|-----------4-----------------3-6-3S1-|
|---------1---3pb4r3-1---/5-3-3-3-3S1-|
|-/3pb4r3--------------3--------------|
|-------------------------------------|
|-------------------------------------|


|-----------------------------------|
|-4---------4-----------3-3---1-----|
|---3b4r3-5---/3-1----------3---1---|
|------------------3-/3-----------1-|
|-----------------------------------|
|-----------------------------------|


|-------------------------------------------|
|---------4---------------1-----------------|
|-----[3]---3b3.5r3-----3---1---------------|
|-3h5---------------5-3-------3-[3]-[3]-[3]-|
|-------------------------------------------|
|-------------------------------------------|


|-------------------------------------------|
|-----------------------------------------4-|
|-----------------------------------------2-|
|-----[1]-[3]-[3]---------3-----1-[1]-[3]-3-|
|-1h3---------------------3---3-------------|
|-----------------3b4r3-1-1-1---------------|


Tablature 🏷Legend
----------------
h   - hammer-on
p   - pull-off
b   - bend
pb  - pre-bend
r   - bend release (if no number after the r,
       then release immediately
/\  - slide into or out of (from/to "nowhere")
S   - shift slide
[n]  - artificial harmonic
=   - hold bend; also acts as connecting device for
       hammers/pulls

Misc 🏷Legend
-----------
Tempo markers - <E/E./Q/Q./H/H.> = BPM(8/16=s8/s16),
where s8 = swing 8ths, s16 = swing 16ths


************************************************************
Generated using Power Tab Editor by Brad Larsen -
http://powertab.guitarnetwork.org
************************************************************

_________________________________________________________________

Almost there ...

Sign in to get your own page with links to favourite songs and more. You are just one click away...

Login with Facebook Login with Google