Log in

One click and you are in

Login with Facebook Login with Google

Why sign up and log in

Guitar Tabs Explorer
Phill Veras guitar tabs for Pode vir comigo

Guitar tabs

Tuning: Standard (E A D G B E)


Intro:

e|------------------7-----------------------------|
B|5-----7-----8-----7-----7-----------8-7---------|
G|5-----7-----7-----7-----7---------7-----7-9-7---|
D|5-----7-----9-----------7-------7-------------9-|
A|------------7-----------------------------------|
E|5-----7-----------------7-----7-----------------|

e|------------------7-----10----------10-8-7----------|
B|5-----7-----8-----7-----7---------7--------10-8-7---|
G|5-----7-----7-----7-----7-------7-----------------9-|
D|5-----7-----9---------------------------------------|
A|------------7---------------------------------------|
E|5-----7-----------------7-----7---------------------|

e|------------------7-----------------------------|
B|5-----7-----8-----7-----7-----------8-7---------|
G|5-----7-----7-----7-----7---------7-----7-9-7---|
D|5-----7-----9-----------7-------7-------------9-|
A|------------7-----------------------------------|
E|5-----7-----------------7-----7-----------------|

e|-----------------------------------|
B|5---------5-5-----------5---7---8\-|
G|5-----------5---------5------------|
D|5-------5---5-------5--------------|
A|-----------------------------------|
E|5-----5-----5-----5----------------|


Verse 1:

e|-------------------------------------5/7-5--0-|
B|------0-----------0-----------0------0---0--0-|
G|----5---5-------5---5-------5-----5--0---0--0-|
D|--5-------5---5-------5---4-----4-------------|
A|------------------------5---------------------|
E|5-----------s---------------------------------|

e|------3--0--------3--0--------5-----5-----5-----|
B|------0--0--------0--0----------0-----0-----0---|
G|----5-5--5------5-5--5------5-----5-----5-----5-|
D|--5-----------5-----------4---------------------|
A|------------------------5-----------------------|
E|5-----------5-----------------------------------|

e|-------------------------------------5/7-5--0-|
B|------0-----------0-----------0------0---0--0-|
G|----5---5-------5---5-------5-----5--0---0--0-|
D|--5-------5---5-------5---4-----4-------------|
A|------------------------5---------------------|
E|5-----------s---------------------------------|

e|------3--0--------3--0--------5-----5-----5-----|
B|------0--0--------0--0----------0-----0-----0---|
G|----5-5--5------5-5--5------5-----5-----5-----5-|
D|--5-----------5-----------4---------------------|
A|------------------------5-----------------------|
E|5-----------5-----------------------------------|

Verse 2:

e|--------------------------------------------------|
B|------0-----------0-----------0-------------0-----|
G|----5---5-------5---5-------5-----5-------5-----5-|
D|--5-------5---5-------5---4-----4-------4-----4---|
A|------------------------5-------------5-----------|
E|5-----------s-----------------------s-------------|

e|--------------------------------------------------|
B|------0-----------0-----------0-------------0-----|
G|----5---5-------5---5-------5-----5-------5-----5-|
D|--5-------5---5-------5---4-----4-------4-----4---|
A|------------------------5-------------5-----------|
E|5-----------s-----------------------s-------------|


Bridge 1:

e|------------------------|
B|------3-----------3-----|
G|----2---2-------2---2---|
D|--4-------4---4-------4-|
A|2-----------s-----------|
E|------------------------|

e|---------------7-------------------------7-|
B|5----7----8---8-----------5----7----8---8--|
G|5----7----7--7------------5----7----7--7---|
D|5----7----9---------------5----7----9------|
A|----------7-------------------------7------|
E|5----7--------------------5----7-----------|


Verse 1:

e|-------------------------------------5/7-5--0-|
B|------0-----------0-----------0------0---0--0-|
G|----5---5-------5---5-------5-----5--0---0--0-|
D|--5-------5---5-------5---4-----4-------------|
A|------------------------5---------------------|
E|5-----------s---------------------------------|

e|------3--0--------3--0--------5-----5-----5-----|
B|------0--0--------0--0----------0-----0-----0---|
G|----5-5--5------5-5--5------5-----5-----5-----5-|
D|--5-----------5-----------4---------------------|
A|------------------------5-----------------------|
E|5-----------5-----------------------------------|

e|-------------------------------------5/7-5--0-|
B|------0-----------0-----------0------0---0--0-|
G|----5---5-------5---5-------5-----5--0---0--0-|
D|--5-------5---5-------5---4-----4-------------|
A|------------------------5---------------------|
E|5-----------s---------------------------------|

e|------3--0--------3--0--------5-----5-----5-----|
B|------0--0--------0--0----------0-----0-----0---|
G|----5-5--5------5-5--5------5-----5-----5-----5-|
D|--5-----------5-----------4---------------------|
A|------------------------5-----------------------|
E|5-----------5-----------------------------------|


Verse 2:

e|--------------------------------------------------|
B|------0-----------0-----------0-------------0-----|
G|----5---5-------5---5-------5-----5-------5-----5-|
D|--5-------5---5-------5---4-----4-------4-----4---|
A|------------------------5-------------5-----------|
E|5-----------s-----------------------s-------------|

e|--------------------------------------------------|
B|------0-----------0-----------0-------------0-----|
G|----5---5-------5---5-------5-----5-------5-----5-|
D|--5-------5---5-------5---4-----4-------4-----4---|
A|------------------------5-------------5-----------|
E|5-----------s-----------------------s-------------|


Bridge 1:

e|------------------------|
B|------3-----------3-----|
G|----2---2-------2---2---|
D|--4-------4---4-------4-|
A|2-----------s-----------|
E|------------------------|

e|---------------7-------------------------7-|
B|5----7----8---8-----------5----7----8---8--|
G|5----7----7--7------------5----7----7--7---|
D|5----7----9---------------5----7----9------|
A|----------7-------------------------7------|
E|5----7--------------------5----7-----------|


Verse 1:

e|-------------------------------------5/7-5--0-|
B|------0-----------0-----------0------0---0--0-|
G|----5---5-------5---5-------5-----5--0---0--0-|
D|--5-------5---5-------5---4-----4-------------|
A|------------------------5---------------------|
E|5-----------s---------------------------------|

e|------3--0--------3--0--------5-----5-----5-----|
B|------0--0--------0--0----------0-----0-----0---|
G|----5-5--5------5-5--5------5-----5-----5-----5-|
D|--5-----------5-----------4---------------------|
A|------------------------5-----------------------|
E|5-----------5-----------------------------------|

e|-------------------------------------5/7-5--0-|
B|------0-----------0-----------0------0---0--0-|
G|----5---5-------5---5-------5-----5--0---0--0-|
D|--5-------5---5-------5---4-----4-------------|
A|------------------------5---------------------|
E|5-----------s---------------------------------|

e|------3--0--------3--0--------5-----5-----5-----|
B|------0--0--------0--0----------0-----0-----0---|
G|----5-5--5------5-5--5------5-----5-----5-----5-|
D|--5-----------5-----------4---------------------|
A|------------------------5-----------------------|
E|5-----------5-----------------------------------|


Bridge 2:

e|------------------------0--0--------5--5-------|
B|------7-----------7-----0--0--------5--5-------|
G|----7---7-------7---7---7--7------7-7--7-----7-|
D|--5-------5---5-------5---------5----------5---|
A|7-----------s-----------------7----------7-----|
E|-----------------------------------------------|


Chorus: X 2

e|--------------------------------|
B|---5-----5--------7-----3-------|
G|---5-----5--------7-----2-------|
D|---5-----4--------5-----4---0---|
A|-----------5-5-5/7---s----2-----|
E|5-----s-----------------------5-|

e|--------------------------------|
B|---5-----5--------7-----3-------|
G|---5-----5--------7-----2-------|
D|---5-----4--------5-----4---0---|
A|-----------5-5-5/7---s----2-----|
E|5-----s-----------------------5-|

e|--------------------------------|
B|---5-----5--------7-----3-------|
G|---5-----5--------7-----2-------|
D|---5-----4--------5-----4---0---|
A|-----------5-5-5/7---s----2-----|
E|5-----s-----------------------5-|

e|--------------------------------|
B|---5-----5--------7-----3-------|
G|---5-----5--------7-----2-------|
D|---5-----4--------5-----4---0---|
A|-----------5-5-5/7---s----2-----|
E|5-----s-----------------------5-|


Intro:

e|------------------7-----------------------------|
B|5-----7-----8-----7-----7-----------8-7---------|
G|5-----7-----7-----7-----7---------7-----7-9-7---|
D|5-----7-----9-----------7-------7-------------9-|
A|------------7-----------------------------------|
E|5-----7-----------------7-----7-----------------|

e|------------------7-----10----------10-8-7----------|
B|5-----7-----8-----7-----7---------7--------10-8-7---|
G|5-----7-----7-----7-----7-------7-----------------9-|
D|5-----7-----9---------------------------------------|
A|------------7---------------------------------------|
E|5-----7-----------------7-----7---------------------|

e|------------------7-----------------------------|
B|5-----7-----8-----7-----7-----------8-7---------|
G|5-----7-----7-----7-----7---------7-----7-9-7---|
D|5-----7-----9-----------7-------7-------------9-|
A|------------7-----------------------------------|
E|5-----7-----------------7-----7-----------------|

e|-----------------------------------|
B|5---------5-5-----------5---7---8\-|
G|5-----------5---------5------------|
D|5-------5---5-------5--------------|
A|-----------------------------------|
E|5-----5-----5-----5----------------|


Verse 2:

e|--------------------------------------------------|
B|------0-----------0-----------0-------------0-----|
G|----5---5-------5---5-------5-----5-------5-----5-|
D|--5-------5---5-------5---4-----4-------4-----4---|
A|------------------------5-------------5-----------|
E|5-----------s-----------------------s-------------|

e|--------------------------------------------------|
B|------0-----------0-----------0-------------0-----|
G|----5---5-------5---5-------5-----5-------5-----5-|
D|--5-------5---5-------5---4-----4-------4-----4---|
A|------------------------5-------------5-----------|
E|5-----------s-----------------------s-------------|


Bridge 1:

e|------------------------|
B|------3-----------3-----|
G|----2---2-------2---2---|
D|--4-------4---4-------4-|
A|2-----------s-----------|
E|------------------------|

e|---------------7-------------------------7-|
B|5----7----8---8-----------5----7----8---8--|
G|5----7----7--7------------5----7----7--7---|
D|5----7----9---------------5----7----9------|
A|----------7-------------------------7------|
E|5----7--------------------5----7-----------|


Verse 1:

e|-------------------------------------5/7-5--0-|
B|------0-----------0-----------0------0---0--0-|
G|----5---5-------5---5-------5-----5--0---0--0-|
D|--5-------5---5-------5---4-----4-------------|
A|------------------------5---------------------|
E|5-----------s---------------------------------|

e|------3--0--------3--0--------5-----5-----5-----|
B|------0--0--------0--0----------0-----0-----0---|
G|----5-5--5------5-5--5------5-----5-----5-----5-|
D|--5-----------5-----------4---------------------|
A|------------------------5-----------------------|
E|5-----------5-----------------------------------|

e|-------------------------------------5/7-5--0-|
B|------0-----------0-----------0------0---0--0-|
G|----5---5-------5---5-------5-----5--0---0--0-|
D|--5-------5---5-------5---4-----4-------------|
A|------------------------5---------------------|
E|5-----------s---------------------------------|

e|------3--0--------3--0--------5-----5-----5-----|
B|------0--0--------0--0----------0-----0-----0---|
G|----5-5--5------5-5--5------5-----5-----5-----5-|
D|--5-----------5-----------4---------------------|
A|------------------------5-----------------------|
E|5-----------5-----------------------------------|


Bridge 2:

e|------------------------0--0--------5--5-------|
B|------7-----------7-----0--0--------5--5-------|
G|----7---7-------7---7---7--7------7-7--7-----7-|
D|--5-------5---5-------5---------5----------5---|
A|7-----------s-----------------7----------7-----|
E|-----------------------------------------------|


Chorus: X 3

e|--------------------------------|
B|---5-----5--------7-----3-------|
G|---5-----5--------7-----2-------|
D|---5-----4--------5-----4---0---|
A|-----------5-5-5/7---s----2-----|
E|5-----s-----------------------5-|

e|--------------------------------|
B|---5-----5--------7-----3-------|
G|---5-----5--------7-----2-------|
D|---5-----4--------5-----4---0---|
A|-----------5-5-5/7---s----2-----|
E|5-----s-----------------------5-|

e|--------------------------------|
B|---5-----5--------7-----3-------|
G|---5-----5--------7-----2-------|
D|---5-----4--------5-----4---0---|
A|-----------5-5-5/7---s----2-----|
E|5-----s-----------------------5-|

e|--------------------------------|
B|---5-----5--------7-----3-------|
G|---5-----5--------7-----2-------|
D|---5-----4--------5-----4---0---|
A|-----------5-5-5/7---s----2-----|
E|5-----s-----------------------5-|


Outro:

e|--------------------------------|
B|---5-----5--------7-----3-------|
G|---5-----5--------7-----2-------|
D|---5-----4--------5-----4---0---|
A|-----------5-5-5/7---s----2-----|
E|5-----s-----------------------5-|

e|------------------7-------------10-|
B|5-----7-----8-----7-----7------7---|
G|5-----7-----7-----7-----7-----7----|
D|5-----7-----9-----------7----------|
A|------------7----------------------|
E|5-----7-----------------7----------|


************************************

| /   Slide up
| \   Slide down
| s   Slap

************************************

Almost there ...

Sign in to get your own page with links to favourite songs and more. You are just one click away...

Login with Facebook Login with Google