Log in

One click and you are in

Login with Facebook Login with Google

Why sign up and log in

Guitar Tabs Explorer
Phantom Planet tabs for The guest

Guitar tabs with lyrics

Album: The Guest disc 2
e-mail: fcg1502@hotmail.com


I love Phantom Planet but no one seems to do the tabs for the songs, so I
decided to take a
crack at some.  Don't know if this is exactly right, it seems to be just
different octaves
of the A chord diagramA augmentedA chord.  It sounds fine when playing with the song.  There are other
guitars but I
only figured out this main part so far.  If anyone has any corrections or
different ideas,
e-mail me.
harmonic: <x>


Intro (and played during the song at different parts)

e:-----------------------------------------------------------------------
B:-----------------------------------------------------------------------
G:-----------------------------------------------------------------------
D:-----------------------------------------------<12>----<7>------
A:----<12>----<9>----<7>----<5>-----------------------------
E:------------------------------------------------------------------------


Verse and Chorus

e:-----------------------------
B:-----------------------------
G:----------14----7----------
D:----7----14----7----7----
A:----7----12----5----7----
E:----5-----------------5----

If you need help with timing, while one guitar plays the intro part, match
certain harmonic
hits with the playing of a chord.  For example, the first chord is played
with the first
harmonic, the second chord with the third harmonic, the third with the
fifth, and the fourth
with the sixth.  I hope that helps.

_________________________________________________________________

Almost there ...

Sign in to get your own page with links to favourite songs and more. You are just one click away...

Login with Facebook Login with Google