Log in

One click and you are in

Login with Facebook Login with Google

Why sign up and log in

Guitar Tabs Explorer
Phantom Planet tabs for Big brat

Guitar tabs

The first "1" on the A chord diagramA augmentedA string is only played once at the beginning of the song. After repeating the rift, don't include it.

e------------------------------------
B------------------------------------
G------------------------------------
D------------------------------------
A--1-----5-5-5-5---------------------
E-------------------1--3-3-1--3-3-1--


e-----------------------------------
B-----------------------------------
G-----------------------------------
D-----------------------------------
A-------5-5-5-5---------------------
E-------------------1--3-3-1--3-----


e-----------------------------------
B-----------------------------------
G-----------------------------------
D--7-7---7-7---7-7---7-7---7-7------
A--7-7---7-7---7-7---7-7---7-7------
E--5-5---5-5---5-5---5-5---5-5------

By Michael Shertok

Almost there ...

Sign in to get your own page with links to favourite songs and more. You are just one click away...

Login with Facebook Login with Google