Log in

One click and you are in

Login with Facebook Login with Google

Why sign up and log in

Guitar Tabs Explorer
Peter And Gordon tabs for A world without love

Guitar tabs with lyrics

A chord diagramA augmentedA WORLD WITHOUT LOVE

As recorded by Peter & Gordon
(From the 1964 Album PETER AND GORDON)

Words and Music by John Lennon & Paul McCartney

Transcribed by Slowhand
Gtr I (E A D G B E) - 'Acoustic Guitar'
Gtr II (E A D G B E) - 'Electric 12-string Guitar'


 Intro                       1st - 3rd Verses
  Q=132
                          $
  N.C.                        A chord diagramE MajorE                 A chord diagramG#G#
 4/4
  Gtr I
  W          W                A chord diagramE MajorE A chord diagramE MajorE A chord diagramE MajorE A chord diagramE MajorE A chord diagramE MajorE A chord diagramE MajorE A chord diagramE MajorE A chord diagramE MajorE   A chord diagramE MajorE A chord diagramE MajorE A chord diagramE MajorE A chord diagramE MajorE A chord diagramE MajorE A chord diagramE MajorE A chord diagramE MajorE A chord diagramE MajorE
|----------|--------------||--0-0-0-0-0-0-0-0-|-4-4-4-4-4-4-4-4--|
|----------|--------------||o-0-0-0-0-0-0-0-0-|-4-4-4-4-4-4-4-4--|
|----------|--------------||--1-1-1-1-1-1-1-1-|-5-5-5-5-5-5-5-5--|
|----------|--------------||--2-2-2-2-2-2-2-2-|-6-6-6-6-6-6-6-6--|
|----------|--------------||o-2-2-2-2-2-2-2-2-|-6-6-6-6-6-6-6-6--|
|----------|--------------||--0-0-0-0-0-0-0-0-|-4-4-4-4-4-4-4-4--|
|
| Gtr II
| W          H    A chord diagramE MajorE A chord diagramE MajorE A chord diagramE MajorE A chord diagramE MajorE     W                 W
|----------|--------------||------------------|------------------|
|----------|------2-0-----||o-----------------|------------------|
|----------|----------1---||------------------|------------------|
|----------|------------4-||--2---------------|------------------|
|----------|--------------||o-----------------|------------------|
|----------|--------------||------------------|------------------|

  A chord diagramC# minorC#m                                 A chord diagramE MajorE                 A chord diagramA minorAm
  A chord diagramE MajorE A chord diagramE MajorE A chord diagramE MajorE A chord diagramE MajorE A chord diagramE MajorE A chord diagramE MajorE A chord diagramE MajorE A chord diagramE MajorE   A chord diagramE MajorE A chord diagramE MajorE A chord diagramE MajorE A chord diagramE MajorE A chord diagramE MajorE A chord diagramE MajorE A chord diagramE MajorE A chord diagramE MajorE   A chord diagramE MajorE A chord diagramE MajorE A chord diagramE MajorE A chord diagramE MajorE A chord diagramE MajorE A chord diagramE MajorE A chord diagramE MajorE A chord diagramE MajorE   A chord diagramE MajorE A chord diagramE MajorE A chord diagramE MajorE A chord diagramE MajorE A chord diagramE MajorE A chord diagramE MajorE A chord diagramE MajorE A chord diagramE MajorE
|-4-4-4-4-4-4-4-4-|-4-4-4-4-4-4-4-4-|-0-0-0-0-0-0-0-0-|-0-0-0-0-0-0-0-0--|
|-5-5-5-5-5-5-5-5-|-5-5-5-5-5-5-5-5-|-0-0-0-0-0-0-0-0-|-1-1-1-1-1-1-1-1--|
|-6-6-6-6-6-6-6-6-|-6-6-6-6-6-6-6-6-|-1-1-1-1-1-1-1-1-|-2-2-2-2-2-2-2-2--|
|-6-6-6-6-6-6-6-6-|-6-6-6-6-6-6-6-6-|-2-2-2-2-2-2-2-2-|-2-2-2-2-2-2-2-2--|
|-4-4-4-4-4-4-4-4-|-4-4-4-4-4-4-4-4-|-2-2-2-2-2-2-2-2-|-0-0-0-0-0-0-0-0--|
|-----------------|-----------------|-0-0-0-0-0-0-0-0-|------------------|


  A chord diagramE MajorE                                   A chord diagramF# minorF#m               A chord diagramB7B7
  A chord diagramE MajorE A chord diagramE MajorE A chord diagramE MajorE A chord diagramE MajorE A chord diagramE MajorE A chord diagramE MajorE A chord diagramE MajorE A chord diagramE MajorE   A chord diagramE MajorE A chord diagramE MajorE A chord diagramE MajorE A chord diagramE MajorE A chord diagramE MajorE A chord diagramE MajorE A chord diagramE MajorE A chord diagramE MajorE   A chord diagramE MajorE A chord diagramE MajorE A chord diagramE MajorE A chord diagramE MajorE A chord diagramE MajorE A chord diagramE MajorE A chord diagramE MajorE A chord diagramE MajorE   A chord diagramE MajorE A chord diagramE MajorE A chord diagramE MajorE A chord diagramE MajorE A chord diagramE MajorE A chord diagramE MajorE A chord diagramE MajorE A chord diagramE MajorE
|-0-0-0-0-0-0-0-0-|-0-0-0-0-0-0-0-0-|-2-2-2-2-2-2-2-2-|-2-2-2-2-2-2-2-2--|
|-0-0-0-0-0-0-0-0-|-0-0-0-0-0-0-0-0-|-2-2-2-2-2-2-2-2-|-0-0-0-0-0-0-0-0--|
|-1-1-1-1-1-1-1-1-|-1-1-1-1-1-1-1-1-|-2-2-2-2-2-2-2-2-|-2-2-2-2-2-2-2-2--|
|-2-2-2-2-2-2-2-2-|-2-2-2-2-2-2-2-2-|-4-4-4-4-4-4-4-4-|-1-1-1-1-1-1-1-1--|
|-2-2-2-2-2-2-2-2-|-2-2-2-2-2-2-2-2-|-4-4-4-4-4-4-4-4-|-2-2-2-2-2-2-2-2--|
|-0-0-0-0-0-0-0-0-|-0-0-0-0-0-0-0-0-|-2-2-2-2-2-2-2-2-|------------------|


                    1.
           To Coda
  A chord diagramE MajorE                  A chord diagramC majorC          A chord diagramB7B7
  A chord diagramE MajorE A chord diagramE MajorE A chord diagramE MajorE A chord diagramE MajorE A chord diagramE MajorE A chord diagramE MajorE A chord diagramE MajorE A chord diagramE MajorE     A chord diagramE MajorE S S A chord diagramE MajorE A chord diagramE MajorE  A chord diagramE MajorE A chord diagramE MajorE A chord diagramE MajorE A chord diagramE MajorE
|-0-0-0-0-0-0-0-0--|--0-0-0-0-0--2-2-2-2--||
|-0-0-0-0-0-0-0-0--|--1-1-1-1-1--0-0-0-0-o||
|-1-1-1-1-1-1-1-1--|--0-0-0-0-0--2-2-2-2--||
|-2-2-2-2-2-2-2-2--|--2-2-2-2-2--1-1-1-1--||
|-2-2-2-2-2-2-2-2--|--3-3-3-3-3--2-2-2-2-o||
|-0-0-0-0-0-0-0-0--|----------------------||
|
| Gtr II
| W                   H          H
|------------------|-^0---------^2--------||
|------------------|-^1---------^0-------o||
|------------------|-^0---------^2--------||
|------------------|-^2---------^1--------||
|------------------|-^3---------^2-------o||
|------------------|----------------------||


                    Bridge
 2.
  A chord diagramE MajorE                  A chord diagramA minorAm
  A chord diagramE MajorE A chord diagramE MajorE A chord diagramE MajorE A chord diagramE MajorE A chord diagramE MajorE A chord diagramE MajorE A chord diagramE MajorE A chord diagramE MajorE    A chord diagramE MajorE A chord diagramE MajorE A chord diagramE MajorE A chord diagramE MajorE  A chord diagramE MajorE  A chord diagramE MajorE A chord diagramE MajorE A chord diagramE MajorE
|-0-0-0-0-0-0-0-0-||-0-0-0-0--0--0-0-0--|
|-0-0-0-0-0-0-0-0-||-1-1-1-1--1--1-1-1--|
|-1-1-1-1-1-1-1-1-||-2-2-2-2--2--2-2-2--|
|-2-2-2-2-2-2-2-2-||-2-2-2-2--2--2-2-2--|
|-2-2-2-2-2-2-2-2-||-0-0-0-0--0--0-0-0--|
|-0-0-0-0-0-0-0-0-||--------------------|
|
| W                  Q   A chord diagramE MajorE A chord diagramE MajorE +H
|-----------------||--------------------|
|-----------------||-------1-(1)--------|
|-----------------||-----2--------------|
|-----------------||--------------------|
|-----------------||--------------------|
|-----------------||--------------------|


                      A chord diagramE MajorE                                   A chord diagramA minorAm
   A chord diagramE MajorE  A chord diagramE MajorE A chord diagramE MajorE A chord diagramE MajorE A chord diagramE MajorE A chord diagramE MajorE A chord diagramE MajorE A chord diagramE MajorE   A chord diagramE MajorE A chord diagramE MajorE A chord diagramE MajorE A chord diagramE MajorE A chord diagramE MajorE A chord diagramE MajorE A chord diagramE MajorE A chord diagramE MajorE   A chord diagramE MajorE A chord diagramE MajorE A chord diagramE MajorE A chord diagramE MajorE A chord diagramE MajorE A chord diagramE MajorE A chord diagramE MajorE A chord diagramE MajorE   A chord diagramE MajorE A chord diagramE MajorE A chord diagramE MajorE A chord diagramE MajorE A chord diagramE MajorE A chord diagramE MajorE A chord diagramE MajorE A chord diagramE MajorE
|--0--0-0-0-0-0-0-0-|-0-0-0-0-0-0-0-0-|-0-0-0-0-0-0-0-0-|-0-0-0-0-0-0-0-0--|
|--1--1-1-1-1-1-1-1-|-0-0-0-0-0-0-0-0-|-0-0-0-0-0-0-0-0-|-1-1-1-1-1-1-1-1--|
|--2--2-2-2-2-2-2-2-|-1-1-1-1-1-1-1-1-|-1-1-1-1-1-1-1-1-|-2-2-2-2-2-2-2-2--|
|--2--2-2-2-2-2-2-2-|-2-2-2-2-2-2-2-2-|-2-2-2-2-2-2-2-2-|-2-2-2-2-2-2-2-2--|
|--0--0-0-0-0-0-0-0-|-2-2-2-2-2-2-2-2-|-2-2-2-2-2-2-2-2-|-0-0-0-0-0-0-0-0--|
|-------------------|-0-0-0-0-0-0-0-0-|-0-0-0-0-0-0-0-0-|------------------|
|
| +H        A chord diagramE MajorE A chord diagramE MajorE Q     W                 H       A chord diagramE MajorE A chord diagramE MajorE A chord diagramE MajorE A chord diagramE MajorE   H       A chord diagramE MajorE A chord diagramE MajorE A chord diagramE MajorE A chord diagramE MajorE
|-------------------|-----------------|-----------------|------------------|
|-(1)-------1-3-1---|-----------------|-----------------|-----------1-3-1--|
|-------------------|-----------------|-----------------|-2----------------|
|-------------------|-----------------|-----------4---2-|------------------|
|-------------------|-----------------|-----------------|------------------|
|-------------------|-----------------|-----------------|------------------|


                      A chord diagramF# minorF#m
   A chord diagramE MajorE  A chord diagramE MajorE A chord diagramE MajorE A chord diagramE MajorE A chord diagramE MajorE A chord diagramE MajorE A chord diagramE MajorE A chord diagramE MajorE   A chord diagramE MajorE A chord diagramE MajorE A chord diagramE MajorE A chord diagramE MajorE A chord diagramE MajorE A chord diagramE MajorE A chord diagramE MajorE A chord diagramE MajorE
|--0--0-0-0-0-0-0-0-|-2-2-2-2-2-2-2-2-|
|--1--1-1-1-1-1-1-1-|-2-2-2-2-2-2-2-2-|
|--2--2-2-2-2-2-2-2-|-2-2-2-2-2-2-2-2-|
|--2--2-2-2-2-2-2-2-|-4-4-4-4-4-4-4-4-|
|--0--0-0-0-0-0-0-0-|-4-4-4-4-4-4-4-4-|
|-------------------|-2-2-2-2-2-2-2-2-|
|
| +Q    Q   H         W
|-------------------|-----------------|
|-(1)---------------|-----------------|
|-------------------|-----------------|
|-------------------|-----------------|
|-------------------|-----------------|
|-------------------|-----------------|


        D.S. al Coda &
  A chord diagramC majorC         A chord diagramB7B7          A chord diagramC majorC          A chord diagramB7B7
  A chord diagramE MajorE S S A chord diagramE MajorE A chord diagramE MajorE A chord diagramE MajorE A chord diagramE MajorE A chord diagramE MajorE A chord diagramE MajorE      A chord diagramE MajorE S S A chord diagramE MajorE A chord diagramE MajorE  A chord diagramE MajorE A chord diagramE MajorE A chord diagramE MajorE A chord diagramE MajorE
|-0-0-0-0-0-2-2-2-2--||--0-0-0-0-0--2-2-2-2-||
|-1-1-1-1-1-0-0-0-0--||--1-1-1-1-1--0-0-0-0-||
|-0-0-0-0-0-2-2-2-2--||--0-0-0-0-0--2-2-2-2-||
|-2-2-2-2-2-1-1-1-1--||--2-2-2-2-2--1-1-1-1-||
|-3-3-3-3-3-2-2-2-2--||--3-3-3-3-3--2-2-2-2-||
|--------------------||---------------------||
|
| A chord diagramE MajorE A chord diagramE MajorE   A chord diagramE MajorE A chord diagramE MajorE Q   A chord diagramE MajorE A chord diagramE MajorE      H          H
|--------------------||-^0---------^2-------||
|---------1-0--------||-^1---------^0-------||
|-------0-------4----||-^0---------^2-------||
|---2-------------2--||-^2---------^1-------||
|-3------------------||-^3---------^2-------||
|--------------------||---------------------||


 Interlude
  A chord diagramE MajorE                   A chord diagramG#G#
  A chord diagramE MajorE A chord diagramE MajorE A chord diagramE MajorE A chord diagramE MajorE A chord diagramE MajorE   A chord diagramE MajorE A chord diagramE MajorE A chord diagramE MajorE   A chord diagramE MajorE A chord diagramE MajorE A chord diagramE MajorE A chord diagramE MajorE A chord diagramE MajorE A chord diagramE MajorE A chord diagramE MajorE A chord diagramE MajorE
|-0-0-0-0-0---0-0-0-|-4-4-4-4-4-4-4-4-|
|-0-0-0-0-0---0-0-0-|-4-4-4-4-4-4-4-4-|
|-1-1-1-1-1---1-1-1-|-5-5-5-5-5-5-5-5-|
|-2-2-2-2-2---2-2-2-|-6-6-6-6-6-6-6-6-|
|-2-2-2-2-2---2-2-2-|-6-6-6-6-6-6-6-6-|
|-0-0-0-0-0---0-0-0-|-4-4-4-4-4-4-4-4-|
|
| Q   A chord diagramE MajorE A chord diagramE MajorE S S A chord diagramE MajorE A chord diagramE MajorE A chord diagramE MajorE   Q   A chord diagramE MajorE A chord diagramE MajorE A chord diagramE MajorE A chord diagramE MajorE A chord diagramE MajorE A chord diagramE MajorE
|-------------------|-----------------|
|-------------------|-----------------|
|-------------------|-----------1-----|
|-------2-5p4-2-4-2-|-------1-4-----1-|
|-------------------|-----3-----------|
|-------------------|-----------------|


  A chord diagramC# minorC#m
  A chord diagramE MajorE A chord diagramE MajorE A chord diagramE MajorE A chord diagramE MajorE   A chord diagramE MajorE A chord diagramE MajorE A chord diagramE MajorE A chord diagramE MajorE   A chord diagramE MajorE    A chord diagramE MajorE A chord diagramE MajorE A chord diagramE MajorE A chord diagramE MajorE    A chord diagramE MajorE A chord diagramE MajorE A chord diagramE MajorE
|-4-4-4-4---4-4-4-4-|-4----4-4-4-4----4-4-4--|
|-5-5-5-5---5-5-5-5-|-5----5-5-5-5----5-5-5--|
|-6-6-6-6---6-6-6-6-|-6----6-6-6-6----6-6-6--|
|-6-6-6-6---6-6-6-6-|-6----6-6-6-6----6-6-6--|
|-4-4-4-4---4-4-4-4-|-4----4-4-4-4----4-4-4--|
|-------------------|------------------------|
|
| Q   Q   a Q   Q     S E.   Q   S E.   Q
|-------------------|------------------------|
|-------------------|------------------------|
|-------------------|------------------------|
|---------2p1-------|-2p1--------2p1---------|
|-4---4---------4---|--------4----------4----|
|-------------------|------------------------|


  A chord diagramE MajorE                 A chord diagramA minorAm
  A chord diagramE MajorE A chord diagramE MajorE A chord diagramE MajorE A chord diagramE MajorE A chord diagramE MajorE A chord diagramE MajorE A chord diagramE MajorE A chord diagramE MajorE   A chord diagramE MajorE A chord diagramE MajorE A chord diagramE MajorE A chord diagramE MajorE      A chord diagramE MajorE  A chord diagramE MajorE A chord diagramE MajorE A chord diagramE MajorE
|-0-0-0-0-0-0-0-0-|-0-0-0-0------0--0-0-0-|
|-0-0-0-0-0-0-0-0-|-1-1-1-1------1--1-1-1-|
|-1-1-1-1-1-1-1-1-|-2-2-2-2------2--2-2-2-|
|-2-2-2-2-2-2-2-2-|-2-2-2-2------2--2-2-2-|
|-2-2-2-2-2-2-2-2-|-0-0-0-0------0--0-0-0-|
|-0-0-0-0-0-0-0-0-|-----------------------|
|
| Q   Q   A chord diagramE MajorE A chord diagramE MajorE A chord diagramE MajorE A chord diagramE MajorE   A chord diagramE MajorE A chord diagramE MajorE A chord diagramE MajorE A chord diagramE MajorE     +A chord diagramE MajorE  A chord diagramE MajorE A chord diagramE MajorE A chord diagramE MajorE
|-----------------|-----------------------|
|-----------------|-----------------------|
|-----------------|-----0-2b2.5-(2)-2-----|
|-----------------|---2---------------2-2-|
|---------2-4-2---|-3---------------------|
|-0---4-----------|-----------------------|


  A chord diagramE MajorE
  A chord diagramE MajorE A chord diagramE MajorE A chord diagramE MajorE   A chord diagramE MajorE A chord diagramE MajorE A chord diagramE MajorE A chord diagramE MajorE A chord diagramE MajorE     A chord diagramE MajorE A chord diagramE MajorE A chord diagramE MajorE A chord diagramE MajorE A chord diagramE MajorE   A chord diagramE MajorE A chord diagramE MajorE A chord diagramE MajorE
|-0-0-0---0-0-0-0-0---|-0-0-0-0-0---0-0-0-|
|-0-0-0---0-0-0-0-0---|-0-0-0-0-0---0-0-0-|
|-1-1-1---1-1-1-1-1---|-1-1-1-1-1---1-1-1-|
|-2-2-2---2-2-2-2-2---|-2-2-2-2-2---2-2-2-|
|-2-2-2---2-2-2-2-2---|-2-2-2-2-2---2-2-2-|
|-0-0-0---0-0-0-0-0---|-0-0-0-0-0---0-0-0-|
|
| A chord diagramE MajorE A chord diagramE MajorE S S A chord diagramE MajorE A chord diagramE MajorE A chord diagramE MajorE A chord diagramE MajorE S S   A chord diagramE MajorE A chord diagramE MajorE A chord diagramE MajorE A chord diagramE MajorE S S A chord diagramE MajorE A chord diagramE MajorE A chord diagramE MajorE
|---------------------|-------------------|
|---------------------|-------------------|
|---------------------|-------------------|
|-2---5p4-2-4---2-5p4-|-2-4---2-5p4-2-4---|
|-------------4-------|-----4-----------4-|
|---------------------|-------------------|


  A chord diagramF# minorF#m                  A chord diagramB7B7                A chord diagramE MajorE
  A chord diagramE MajorE  A chord diagramE MajorE A chord diagramE MajorE A chord diagramE MajorE  A chord diagramE MajorE  A chord diagramE MajorE A chord diagramE MajorE A chord diagramE MajorE   A chord diagramE MajorE A chord diagramE MajorE A chord diagramE MajorE A chord diagramE MajorE A chord diagramE MajorE A chord diagramE MajorE A chord diagramE MajorE A chord diagramE MajorE   A chord diagramE MajorE A chord diagramE MajorE A chord diagramE MajorE A chord diagramE MajorE A chord diagramE MajorE A chord diagramE MajorE A chord diagramE MajorE A chord diagramE MajorE   A chord diagramE MajorE A chord diagramE MajorE A chord diagramE MajorE A chord diagramE MajorE A chord diagramE MajorE A chord diagramE MajorE A chord diagramE MajorE A chord diagramE MajorE
|-2--2-2-2--2--2-2-2-|-2-2-2-2-2-2-2-2-|-0-0-0-0-0-0-0-0-|-0-0-0-0-0-0-0-0--||
|-2--2-2-2--2--2-2-2-|-0-0-0-0-0-0-0-0-|-0-0-0-0-0-0-0-0-|-0-0-0-0-0-0-0-0--||
|-2--2-2-2--2--2-2-2-|-2-2-2-2-2-2-2-2-|-1-1-1-1-1-1-1-1-|-1-1-1-1-1-1-1-1--||
|-4--4-4-4--4--4-4-4-|-1-1-1-1-1-1-1-1-|-2-2-2-2-2-2-2-2-|-2-2-2-2-2-2-2-2--||
|-4--4-4-4--4--4-4-4-|-2-2-2-2-2-2-2-2-|-2-2-2-2-2-2-2-2-|-2-2-2-2-2-2-2-2--||
|-2--2-2-2--2--2-2-2-|-----------------|-0-0-0-0-0-0-0-0-|-0-0-0-0-0-0-0-0--||
|
| Q.     A chord diagramE MajorE +A chord diagramE MajorE  Q   A chord diagramE MajorE   Q   A chord diagramE MajorE A chord diagramE MajorE A chord diagramE MajorE A chord diagramE MajorE A chord diagramE MajorE A chord diagramE MajorE   Q   A chord diagramE MajorE A chord diagramE MajorE A chord diagramE MajorE A chord diagramE MajorE A chord diagramE MajorE A chord diagramE MajorE   A chord diagramE MajorE A chord diagramE MajorE A chord diagramE MajorE A chord diagramE MajorE A chord diagramE MajorE A chord diagramE MajorE A chord diagramE MajorE A chord diagramE MajorE
|--------------------|-----------------|-----------------|------------------||
|--------------------|-----------------|-----------------|------------------||
|--------------------|-----------2-4-2-|-----------------|------------------||
|------------------2-|-----1-4---------|-----------------|-------2---2-4----||
|--------0-(0)-4-----|-2---------------|-----------2---2-|-5-2-5---5--------||
|-2------------------|-----------------|-0---0-0-4---4---|------------------||


 Bridge
  A chord diagramA minorAm
  A chord diagramE MajorE A chord diagramE MajorE A chord diagramE MajorE A chord diagramE MajorE A chord diagramE MajorE A chord diagramE MajorE A chord diagramE MajorE A chord diagramE MajorE   A chord diagramE MajorE A chord diagramE MajorE A chord diagramE MajorE A chord diagramE MajorE   A chord diagramE MajorE A chord diagramE MajorE A chord diagramE MajorE A chord diagramE MajorE
|-0-0-0-0-0-0-0-0-|-0-0-0-0---0-0-0-0-|
|-1-1-1-1-1-1-1-1-|-1-1-1-1---1-1-1-1-|
|-2-2-2-2-2-2-2-2-|-2-2-2-2---2-2-2-2-|
|-2-2-2-2-2-2-2-2-|-2-2-2-2---2-2-2-2-|
|-0-0-0-0-0-0-0-0-|-0-0-0-0---0-0-0-0-|
|-----------------|-------------------|
|
| W                 A chord diagramE MajorE A chord diagramE MajorE A chord diagramE MajorE A chord diagramE MajorE a A chord diagramE MajorE A chord diagramE MajorE A chord diagramE MajorE A chord diagramE MajorE
|-----------------|-------------------|
|-----------------|-------------------|
|-2---------------|-----5-7-7h8-7-5---|
|-----------------|---7-------------7-|
|-----------------|-------------------|
|-----------------|-------------------|


  A chord diagramE MajorE
  A chord diagramE MajorE   A chord diagramE MajorE  A chord diagramE MajorE  A chord diagramE MajorE  A chord diagramE MajorE  A chord diagramE MajorE  A chord diagramE MajorE A chord diagramE MajorE   A chord diagramE MajorE A chord diagramE MajorE A chord diagramE MajorE A chord diagramE MajorE A chord diagramE MajorE A chord diagramE MajorE A chord diagramE MajorE A chord diagramE MajorE
|-0---0--0--0--0--0--0-0-|-0-0-0-0-0-0-0-0--|
|-0---0--0--0--0--0--0-0-|-0-0-0-0-0-0-0-0--|
|-1---1--1--1--1--1--1-1-|-1-1-1-1-1-1-1-1--|
|-2---2--2--2--2--2--2-2-|-2-2-2-2-2-2-2-2--|
|-2---2--2--2--2--2--2-2-|-2-2-2-2-2-2-2-2--|
|-0---0--0--0--0--0--0-0-|-0-0-0-0-0-0-0-0--|
|
| S S A chord diagramE MajorE +A chord diagramE MajorE  A chord diagramE MajorE +A chord diagramE MajorE  Q.       W
|------------------------|------------------|
|------------------------|------------------|
|------------------------|------------------|
|-5p4-2-(2)-2-(2)-2------|------------------|
|------------------------|------------------|
|------------------------|------------------|


  A chord diagramA minorAm                                  A chord diagramF# minorF#m               A chord diagramC majorC         A chord diagramB7B7
  A chord diagramE MajorE A chord diagramE MajorE A chord diagramE MajorE A chord diagramE MajorE A chord diagramE MajorE A chord diagramE MajorE A chord diagramE MajorE A chord diagramE MajorE   A chord diagramE MajorE A chord diagramE MajorE A chord diagramE MajorE A chord diagramE MajorE A chord diagramE MajorE A chord diagramE MajorE A chord diagramE MajorE A chord diagramE MajorE   A chord diagramE MajorE A chord diagramE MajorE A chord diagramE MajorE A chord diagramE MajorE A chord diagramE MajorE A chord diagramE MajorE A chord diagramE MajorE A chord diagramE MajorE   A chord diagramE MajorE S S A chord diagramE MajorE A chord diagramE MajorE A chord diagramE MajorE A chord diagramE MajorE A chord diagramE MajorE A chord diagramE MajorE
|-0-0-0-0-0-0-0-0-|-0-0-0-0-0-0-0-0-|-2-2-2-2-2-2-2-2-|-0-0-0-0-0-2-2-2-2-||
|-1-1-1-1-1-1-1-1-|-1-1-1-1-1-1-1-1-|-2-2-2-2-2-2-2-2-|-1-1-1-1-1-0-0-0-0-||
|-2-2-2-2-2-2-2-2-|-2-2-2-2-2-2-2-2-|-2-2-2-2-2-2-2-2-|-0-0-0-0-0-2-2-2-2-||
|-2-2-2-2-2-2-2-2-|-2-2-2-2-2-2-2-2-|-4-4-4-4-4-4-4-4-|-2-2-2-2-2-1-1-1-1-||
|-0-0-0-0-0-0-0-0-|-0-0-0-0-0-0-0-0-|-4-4-4-4-4-4-4-4-|-3-3-3-3-3-2-2-2-2-||
|-----------------|-----------------|-2-2-2-2-2-2-2-2-|-------------------||
|
| Q   A chord diagramE MajorE A chord diagramE MajorE A chord diagramE MajorE A chord diagramE MajorE A chord diagramE MajorE A chord diagramE MajorE   A chord diagramE MajorE A chord diagramE MajorE A chord diagramE MajorE A chord diagramE MajorE A chord diagramE MajorE A chord diagramE MajorE A chord diagramE MajorE A chord diagramE MajorE   W                 A chord diagramE MajorE A chord diagramE MajorE   A chord diagramE MajorE A chord diagramE MajorE A chord diagramE MajorE A chord diagramE MajorE A chord diagramE MajorE A chord diagramE MajorE
|-----------------|-----------------|-----------------|-------------------||
|-----------------|-----------------|-----------------|---------1---------||
|-----8p7-5-------|-----------------|-----------------|-------0-----------||
|-----------7-----|-5-7-----5-7-----|-----------------|---2---------1-4---||
|---------------7-|-------7-------7-|-----------------|-3---------2-----2-||
|-----------------|-----------------|-----------------|-------------------||


 4th Verse
  A chord diagramE MajorE                 A chord diagramG#G#                A chord diagramC# minorC#m
  A chord diagramE MajorE A chord diagramE MajorE A chord diagramE MajorE A chord diagramE MajorE A chord diagramE MajorE A chord diagramE MajorE A chord diagramE MajorE A chord diagramE MajorE   A chord diagramE MajorE A chord diagramE MajorE A chord diagramE MajorE A chord diagramE MajorE A chord diagramE MajorE A chord diagramE MajorE A chord diagramE MajorE A chord diagramE MajorE   A chord diagramE MajorE A chord diagramE MajorE A chord diagramE MajorE A chord diagramE MajorE A chord diagramE MajorE A chord diagramE MajorE A chord diagramE MajorE A chord diagramE MajorE   A chord diagramE MajorE A chord diagramE MajorE A chord diagramE MajorE A chord diagramE MajorE A chord diagramE MajorE A chord diagramE MajorE A chord diagramE MajorE A chord diagramE MajorE
|-0-0-0-0-0-0-0-0-|-4-4-4-4-4-4-4-4-|-4-4-4-4-4-4-4-4-|-4-4-4-4-4-4-4-4--|
|-0-0-0-0-0-0-0-0-|-4-4-4-4-4-4-4-4-|-5-5-5-5-5-5-5-5-|-5-5-5-5-5-5-5-5--|
|-1-1-1-1-1-1-1-1-|-5-5-5-5-5-5-5-5-|-6-6-6-6-6-6-6-6-|-6-6-6-6-6-6-6-6--|
|-2-2-2-2-2-2-2-2-|-6-6-6-6-6-6-6-6-|-6-6-6-6-6-6-6-6-|-6-6-6-6-6-6-6-6--|
|-2-2-2-2-2-2-2-2-|-6-6-6-6-6-6-6-6-|-4-4-4-4-4-4-4-4-|-4-4-4-4-4-4-4-4--|
|-0-0-0-0-0-0-0-0-|-4-4-4-4-4-4-4-4-|-----------------|------------------|
|
| Q   Q   H         W                 W                 W
|-----------------|-----------------|-----------------|------------------|
|-----------------|-----------------|-----------------|------------------|
|-----------------|-----------------|-----------------|------------------|
|-2---2-----------|-----------------|-----------------|------------------|
|-----------------|-----------------|-----------------|------------------|
|-----------------|-----------------|-----------------|------------------|


  A chord diagramE MajorE                 A chord diagramA minorAm                A chord diagramE MajorE
  A chord diagramE MajorE A chord diagramE MajorE A chord diagramE MajorE A chord diagramE MajorE A chord diagramE MajorE A chord diagramE MajorE A chord diagramE MajorE A chord diagramE MajorE   A chord diagramE MajorE A chord diagramE MajorE A chord diagramE MajorE A chord diagramE MajorE A chord diagramE MajorE A chord diagramE MajorE A chord diagramE MajorE A chord diagramE MajorE   A chord diagramE MajorE A chord diagramE MajorE A chord diagramE MajorE A chord diagramE MajorE A chord diagramE MajorE A chord diagramE MajorE A chord diagramE MajorE A chord diagramE MajorE   A chord diagramE MajorE A chord diagramE MajorE A chord diagramE MajorE A chord diagramE MajorE  A chord diagramE MajorE  A chord diagramE MajorE A chord diagramE MajorE A chord diagramE MajorE
|-0-0-0-0-0-0-0-0-|-0-0-0-0-0-0-0-0-|-0-0-0-0-0-0-0-0-|-0-0-0-0--0--0-0-0--|
|-0-0-0-0-0-0-0-0-|-1-1-1-1-1-1-1-1-|-0-0-0-0-0-0-0-0-|-0-0-0-0--0--0-0-0--|
|-1-1-1-1-1-1-1-1-|-2-2-2-2-2-2-2-2-|-1-1-1-1-1-1-1-1-|-1-1-1-1--1--1-1-1--|
|-2-2-2-2-2-2-2-2-|-2-2-2-2-2-2-2-2-|-2-2-2-2-2-2-2-2-|-2-2-2-2--2--2-2-2--|
|-2-2-2-2-2-2-2-2-|-0-0-0-0-0-0-0-0-|-2-2-2-2-2-2-2-2-|-2-2-2-2--2--2-2-2--|
|-0-0-0-0-0-0-0-0-|-----------------|-0-0-0-0-0-0-0-0-|-0-0-0-0--0--0-0-0--|
|
| W                 W                 W                 Q   A chord diagramE MajorE A chord diagramE MajorE +H
|-----------------|-----------------|-----------------|-4---5-7-(7)--------|
|-----------------|-----------------|-----------------|-5---7-9-(9)--------|
|-----------------|-----------------|-----------------|--------------------|
|-----------------|-----------------|-----------------|--------------------|
|-----------------|-----------------|-----------------|--------------------|
|-----------------|-----------------|-----------------|--------------------|


  A chord diagramF# minorF#m               A chord diagramB7B7                A chord diagramE MajorE                   A chord diagramC#C#
  A chord diagramE MajorE A chord diagramE MajorE A chord diagramE MajorE A chord diagramE MajorE A chord diagramE MajorE A chord diagramE MajorE A chord diagramE MajorE A chord diagramE MajorE   A chord diagramE MajorE A chord diagramE MajorE A chord diagramE MajorE A chord diagramE MajorE A chord diagramE MajorE A chord diagramE MajorE A chord diagramE MajorE A chord diagramE MajorE   A chord diagramE MajorE A chord diagramE MajorE A chord diagramE MajorE   A chord diagramE MajorE A chord diagramE MajorE A chord diagramE MajorE A chord diagramE MajorE A chord diagramE MajorE    A chord diagramE MajorE  A chord diagramE MajorE A chord diagramE MajorE A chord diagramE MajorE A chord diagramE MajorE A chord diagramE MajorE A chord diagramE MajorE A chord diagramE MajorE
|-2-2-2-2-2-2-2-2-|-2-2-2-2-2-2-2-2-|-0-0-0---0-0-0-0-0-|--4--4-4-4-4-4-4-4-|
|-2-2-2-2-2-2-2-2-|-0-0-0-0-0-0-0-0-|-0-0-0---0-0-0-0-0-|--6--6-6-6-6-6-6-6-|
|-2-2-2-2-2-2-2-2-|-2-2-2-2-2-2-2-2-|-1-1-1---1-1-1-1-1-|--6--6-6-6-6-6-6-6-|
|-4-4-4-4-4-4-4-4-|-1-1-1-1-1-1-1-1-|-2-2-2---2-2-2-2-2-|--6--6-6-6-6-6-6-6-|
|-4-4-4-4-4-4-4-4-|-2-2-2-2-2-2-2-2-|-2-2-2---2-2-2-2-2-|--4--4-4-4-4-4-4-4-|
|-2-2-2-2-2-2-2-2-|-----------------|-0-0-0---0-0-0-0-0-|-------------------|
|
| W                 W                 Q   S S A chord diagramE MajorE A chord diagramE MajorE Q   A chord diagramE MajorE   +W
|-----------------|-----------------|-------------------|-------------------|
|-----------------|-----------------|-------------------|-------------------|
|-----------------|-----------------|-------------------|-------------------|
|-----------------|-----------------|-----5p4-2-4-------|-------------------|
|-----------------|-----------------|-------------4---4-|-(4)---------------|
|-----------------|-----------------|-------------------|-------------------|


  A chord diagramF# minorF#m               A chord diagramB7B7                A chord diagramE MajorE                   A chord diagramC#C#
  A chord diagramE MajorE A chord diagramE MajorE A chord diagramE MajorE A chord diagramE MajorE A chord diagramE MajorE A chord diagramE MajorE A chord diagramE MajorE A chord diagramE MajorE   A chord diagramE MajorE A chord diagramE MajorE A chord diagramE MajorE A chord diagramE MajorE A chord diagramE MajorE A chord diagramE MajorE A chord diagramE MajorE A chord diagramE MajorE   A chord diagramE MajorE A chord diagramE MajorE A chord diagramE MajorE   A chord diagramE MajorE A chord diagramE MajorE A chord diagramE MajorE A chord diagramE MajorE A chord diagramE MajorE    A chord diagramE MajorE  A chord diagramE MajorE A chord diagramE MajorE A chord diagramE MajorE A chord diagramE MajorE A chord diagramE MajorE A chord diagramE MajorE A chord diagramE MajorE
|-2-2-2-2-2-2-2-2-|-2-2-2-2-2-2-2-2-|-0-0-0---0-0-0-0-0-|--4--4-4-4-4-4-4-4-|
|-2-2-2-2-2-2-2-2-|-0-0-0-0-0-0-0-0-|-0-0-0---0-0-0-0-0-|--6--6-6-6-6-6-6-6-|
|-2-2-2-2-2-2-2-2-|-2-2-2-2-2-2-2-2-|-1-1-1---1-1-1-1-1-|--6--6-6-6-6-6-6-6-|
|-4-4-4-4-4-4-4-4-|-1-1-1-1-1-1-1-1-|-2-2-2---2-2-2-2-2-|--6--6-6-6-6-6-6-6-|
|-4-4-4-4-4-4-4-4-|-2-2-2-2-2-2-2-2-|-2-2-2---2-2-2-2-2-|--4--4-4-4-4-4-4-4-|
|-2-2-2-2-2-2-2-2-|-----------------|-0-0-0---0-0-0-0-0-|-------------------|
|
| W                 W                 Q   S S A chord diagramE MajorE A chord diagramE MajorE A chord diagramE MajorE A chord diagramE MajorE A chord diagramE MajorE   +H.           A chord diagramE MajorE A chord diagramE MajorE
|-----------------|-----------------|-------------------|-------------------|
|-----------------|-----------------|-------------------|-------------------|
|-----------------|-----------------|-------------------|---------------2-1-|
|-----------------|-----------------|-----5p4-2-4-------|-------------------|
|-----------------|-----------------|-------------4---4-|-(4)---------------|
|-----------------|-----------------|-------------------|-------------------|


  A chord diagramF# minorF#m                       A chord diagramB7B7            A chord diagramE MajorE
                            |-3-| |-3-|
  A chord diagramE MajorE A chord diagramE MajorE   A chord diagramE MajorE   A chord diagramE MajorE A chord diagramE MajorE A chord diagramE MajorE   A chord diagramE MajorE   A chord diagramE MajorE   Q Q Q Q Q Q   W          +W
|-2-2---2---2-2-2---2---2-|-2-2-2-2-2-2-|-0--------|-(0)----*|
|-2-2---2---2-2-2---2---2-|-0-0-0-0-0-0-|-0--------|-(0)----*|
|-2-2---2---2-2-2---2---2-|-2-2-2-2-2-2-|-1--------|-(1)----*|
|-4-4---4---4-4-4---4---4-|-1-1-1-1-1-1-|-2--------|-(2)----*|
|-4-4---4---4-4-4---4---4-|-2-2-2-2-2-2-|-2--------|-(2)----*|
|-2-2---2---2-2-2---2---2-|-------------|-0--------|-(0)----*|
|
| |---3---|   |---3---|     |-3-| |-3-|
| Q   Q   Q   Q   Q   Q     Q Q Q Q Q Q   W          +W
|-------------------------|-------------|----------|--------*|
|-------------2-------2---|-0-----------|----------|--------*|
|-----1---2-------2-------|---2-1-------|----------|--------*|
|-4-----------------------|-------4-2-1-|-2--------|-(2)----*|
|-------------------------|-------------|----------|--------*|
|-------------------------|-------------|----------|--------*|


Duration 🏷Legend
---------------
W - whole; H - half; Q - quarter; A chord diagramE MajorE - 8th; S - 16th; T - 32nd; X - 64th; a - acciaccatura
+ - note tied to previous; . - note dotted; .. - note double dotted
Uncapitalized letters represent notes that are staccato (1/2 duration)
Irregular groupings are notated above the duration line
Duration letters will always appear directly above the note/fret number it represents the
duration for.  Duration letters with no fret number below them represent rests.  Multi-
bar rests are notated in the form Wxn, where n is the number of bars to rest for.  Low
melody durations appear below the staff

Tablature 🏷Legend
----------------
 h   - hammer-on
 p   - pull-off
 b   - bend
 pb  - pre-bend
 r   - bend release (if no number after the r, then release immediately)
 /\  - slide into or out of (from/to "nowhere")
 s   - legato slide
 S   - shift slide
  - natural harmonic
[n]  - artificial harmonic
n(n) - tapped harmonic
 ~   - vibrato
 tr  - trill
 T   - tap
 TP  - trem. picking
 PM  - palm muting
\n/  - tremolo bar dip; n = amount to dip
 \n  - tremolo bar down
 n/  - tremolo bar up
/n\  - tremolo bar inverted dip
 =   - hold bend; also acts as connecting device for hammers/pulls
 <>  - volume swell (louder/softer)
 x   - on rhythm slash represents muted slash
 o   - on rhythm slash represents single note slash

Misc 🏷Legend
-----------
 |  - bar
||  - double bar
||o - repeat start
o|| - repeat end
*|  - double bar (ending)
 :  - bar (freetime)
 $  - Segno
 &  - Coda
Tempo markers -  = BPM(8/16=s8/s16), where s8 = swing 8ths, s16 = swing 16ths

Other versions of A World Without Love

A world without loveChords

Almost there ...

Sign in to get your own page with links to favourite songs and more. You are just one click away...

Login with Facebook Login with Google