Log in

One click and you are in

Login with Facebook Login with Google

Why sign up and log in

Guitar Tabs Explorer
Pet Symmetry bass tabs for A detailed and poetic physical threat

A Detailed And Poetic Physical Threat bass tab - Pet Symmetry

Pet Symmetry bass tabs for A detailed and poetic physical threat

Bass tabs

Tuning: Standard (E A D G)


Verse 1 - 0:00-0:40:

G|---------------------------|------------------------------|  --|
D|---------------------------|------------------------------|   |
A|-2--2-2-2--2-2-2--2-2-2-4-2|------------------------------|   |
E|---------------------------|-0--0-0-0-0--0-0-0--0-0-0-2-3-|   |
                                 | - x3
G|-----------------------------|------------------------------|  |
D|-----------------------------|------------------------------|  |
A|-----------------------------|------------------------------|  |
E|-4--4-4-4-4--4-4-4--4-4-4-6-4|-0--0-0-0-0--0-0-0--0-0-0-0-0-| --|

Chorus - 0:40-0:53:

G|---------------------------|------------------------------|
D|---------------------------|------------------------------| x 2
A|---------------------------|------------------------------|
E|-4--4-4-4--4-4-4--4-4-4-4-4|-0--0-0-0-0--0-0-0--0-0-0-0-0-|

Guitar solo - 0:53-1:06:

G|---------------------------|------------------------------|
D|---------------------------|------------------------------|
A|-2--2-2-2--2-2-2--2-2-2-4-2|------------------------------|
E|---------------------------|-0--0-0-0-0--0-0-0--0-0-0-2-3-|

G|-----------------------------|------------------------------|
D|-----------------------------|------------------------------|
A|-----------------------------|------------------------------|
E|-4--4-4-4-4--4-4-4--4-4-4-6-4|-0--0-0-0-0--0-0-0--0-0-0-0-0-|


Verse 2 - 1:06-1:20:

G|---------------------------|------------------------------|
D|---------------------------|------------------------------|
A|-2--2-2-2--2-2-2--2-2-2-4-2|------------------------------|
E|---------------------------|-0--0-0-0-0--0-0-0--0-0-0-2-3-|

G|-----------------------------|------------------------------|
D|-----------------------------|------------------------------|
A|-----------------------------|------------------------------|
E|-4--4-4-4-4--4-4-4--4-4-4-6-4|-0--0-0-0-0--0-0-0--0-0-0-0-0-|


Chorus - 1:20-1:49:

G|---------------------------|------------------------------|
D|---------------------------|------------------------------| x 3
A|---------------------------|------------------------------|
E|-4--4-4-4--4-4-4--4-4-4-4-4|-0--0-0-0-0--0-0-0--0-0-0-0-0-|

G|---------------------------|------------------------------|-------------------------------|
D|---------------------------|------------------------------|-------------------------------|
A|---------------------------|------------------------------|-------------------------------|
E|-4--4-4-4--4-4-4--4-4-4-4-4|-0--0-0-0-0--0-0--0-0-0-0-0-0-|-0-0-0-0--0-0-0--0-0-0-0-0-0---|


Bridge - 1:49-2:17:

G|---------------------------|------------------------------|  --|
D|---------------------------|------------------------------|   |
A|-2--2-2-2--2-2-2--2-2-2-4-2|------------------------------|   |
E|---------------------------|-0--0-0-0-0--0-0-0--0-0-0-2-3-|   |
                                 | - x2
G|-----------------------------|------------------------------|  |
D|-----------------------------|------------------------------|  |
A|-----------------------------|------------------------------|  |
E|-4--4-4-4-4--4-4-4--4-4-4-6-4|-0--0-0-0-0--0-0-0--0-0-0-0-0-| --|


Outro - 2:17-2:48:

G|---------------------------|------------------------------|
D|---------------------------|------------------------------| x3
A|-2--2-2-2--2-2-4--4-4-6-6-6|------------------------------|
E|---------------------------|-0--0-0-0-0--0-0-0--0-0-0-0-0-|

G|-----------------------------|-----------------|
D|-----------------------------|-----------------|
A|-----------------------------|-----------------|
E|-4--4-4-4-4--4-4-4--4-4-4-4-4|-0---------------|

Almost there ...

Sign in to get your own page with links to favourite songs and more. You are just one click away...

Login with Facebook Login with Google