Guitar Tabs Explorer
Pet Shop Boys bass tabs for Say it to me

Say It To Me bass tab


5 / 5 [2 votes]


Bassm99Author: Bassm99

Say It To Me bass tab by Pet Shop Boys

`Say It To Me` from the album `Super` (2016). Written by Tennant/Lowe/Price.

Bass tabs

Print
  • Tuning: Standard tuning
  • Difficulty: Novice

Tabbed by: bassm99
E-mail: alanmatthews1966@yahoo.co.uk

Tuning: E, A, D, G

Bass Starts: (0:11)

Intro:

G|--------------------------------------------------------------------------|
D|--------------------------------------------------------------------------|
A|---------------------------7-7-7-7-(x1)-----------------------------------|
E|--5-5-5-5-5-5-5-5--5-5-5-5------------------------------------------------|

Verse:

G|--------------------------------------------------------------------------|
D|--------------------------------------------------------------------------|
A|---------------------------7-7-7-7-(x3)-----------------------------------|
E|--5-5-5-5-5-5-5-5--5-5-5-5------------------------------------------------|

G|--------------------------------------------------------------------------|
D|--------------------------------------------------------------------------|
A|--------------------------------------------------------------------------|
E|--5-5-5-5-5-5-5-5--5-5-5-5-3-3-3-3-(x1)-----------------------------------|

Chorus:

G|--------------------------------------------------------------------------|
D|--------------------------------------------------------------------------|
A|-------5-------3----------------------------------------------------------|
E|--1-1-----5-5-----0-0--3--0-0-(x1)----------------------------------------|

G|--------------------------------------------------------------------------|
D|--------------------------------------------------------------------------|
A|----------5-------3-------------------------------------------------------|
E|--3--1-1-----5-5-----0-0--3--0-0-(x7)---3-(x1)----------------------------|

Repeat Verse:

Repeat Chorus:

Bass Stops: (1:50 - 2:06)

Repeat Chorus: (Fades Out)

G|--------------------------------------------------------------------------|
D|--------------------------------------------------------------------------|
A|-------5-------3----------------------------------------------------------|
E|--1-1-----5-5-----0-0--3--0-0-(x1)----------------------------------------|

G|--------------------------------------------------------------------------|
D|--------------------------------------------------------------------------|
A|----------5-------3-------------------------------------------------------|
E|--3--1-1-----5-5-----0-0--3--0-0-(x15)------------------------------------|

Comment this song and these bass tabs

Do you have corrections, comments on the bass tabs, thoughts about the song or a message to the author? Write them below.