Log in

One click and you are in

Login with Facebook Login with Google

Why sign up and log in

Guitar Tabs Explorer
Jones Persiana bass tabs for Tremarella

Bass tabs

Album: Puerto Hurraco
Tabbed by: Michi (misciel128@hotmail.com)


intro
          x3          x1
G|--------------------|--------------------|
D|--------------------|--------------------|
A|------3-3--5-5--3-5-|-----33--------33-5-|
E|-3-3----------------|-3-3----3--3-3------|
verse
          x3         x1
G|--------------------|-------------------|
D|--------------------|-------------------|
A|------3-3--5-5--3-5-|------3-3----------|
E|-3-3----------------|-3-3-------3-3-3-3-|


chorus 1
G|-----------------|-------------------|---------------------|
D|-----------------|-4-5-5-------------|-4-5-5---------------|
A|------3-3--5-5-5-|--------3-3--5-5-5-|--------3-3--5-5-5-5-|
E|-3-3-------------|-------------------|---------------------|

G|-----------|-----------|
D|-----------|-----------|
A|-----33----|-----33-5~-|
E|-3-3----3~-|-3-3-------|


chorus 2
G|-----------------|-------------------|---------------------|
D|-----------------|-4-5-5-------------|-4-5-5---------------|
A|------3-3--5-5-5-|--------3-3--5-5-5-|--------3-3--5-5-5-5-|
E|-3-3-------------|-------------------|---------------------|
     x3
G|----------|-----------|
D|----------|-----------|
A|-----33---|-----33----|
E|-3-3----3-|-3-3----3~-|

Structure

intro x1

verse x2

chorus 1x2

verse x2

chorus 1x2

verse x2

chorus 2x1

____________________________________________________________________________

Almost there ...

Sign in to get your own page with links to favourite songs and more. You are just one click away...

Login with Facebook Login with Google