Log in

One click and you are in

Login with Facebook Login with Google

Why sign up and log in

Guitar Tabs Explorer
Periphery bass tabs for Muramasa

Bass tabs

Tuning: Half-Step Down (Eb Ab Db Gb)

Title: Muramasa
Album: Periphery II: This Time It's Personal

Tuning: Drop G# (G# D# G# C# F#)


Intro/Vocal Section 1:
Play nothing for the first 46 seconds of the song.


Instrumental Section:

   1  +  2  +  3  +  4  +   1  +  2  +  3  +  4  +
F#|-----------------------------------------|-----------------------------------------|
C#|-----------------------------------------|-----------------------------------------|
G#|-----------------------------------------|-----------------------------------------|
D#|-------------------------------------1---|--1----1----1----1----1----1----1----1---|
G#|--5----5----5----5----5----5----5--------|-----------------------------------------|


   1  +  2  +  3  +  4  +   1  +  2  +  3  +  4  +
F#|-----------------------------------------|-----------------------------------------|
C#|-----------------------------------------|-----------------------------------------|
G#|-----------------------------------------|-----------------------------------------|
D#|--3----3----3----3----3----3----3--------|-----------------------------------------|
G#|-------------------------------------1---|--1----1----1----1----1----1----1----1---|


   1  +  2  +  3  +  4  +   1  +  2  +  3  +  4  +
F#|-----------------------------------------|-----------------------------------------|
C#|-----------------------------------------|-----------------------------------------|
G#|-----------------------------------------|-----------------------------------------|
D#|-----------------------------------------|-----------------------------------------|
G#|--5----5----5----5----5----5----5----3---|--3----3----3----3----3----3----3----3---|

   1  +  2  +  3  +  4  +   1  +  2  +  3  +  4  +
F#|-----------------------------------------|-----------------------------------------|
C#|-----------------------------------------|-----------------------------------------|
G#|-----------------------------------------|-----------------------------------------|
D#|--5----5----5----5----5----5----5--------|-----------------------------------------|
G#|-------------------------------------1---|--1----1----1----1----1----1----1----1---|


   1  +  2  +  3  +  4  +   1  +  2  +  3  +  4  +
F#|-----------------------------------------|-----------------------------------------|
C#|-----------------------------------------|-----------------------------------------|
G#|-----------------------------------------|-----------------------------------------|
D#|-------------------------------------1---|--1----1----1----1----1----1----1----1---|
G#|--5----5----5----5----5----5----5--------|-----------------------------------------|


   1  +  2  +  3  +  4  +   1  +  2  +  3  +  4  +
F#|-----------------------------------------|-----------------------------------------|
C#|-----------------------------------------|-----------------------------------------|
G#|-----------------------------------------|-----------------------------------------|
D#|--3----3----3----3----3----3----3--------|-----------------------------------------|
G#|-------------------------------------1---|--1----1----1----1----1----1----1----1---|


   1  +  2  +  3  +  4  +   1  +  2  +  3  +  4  +
F#|-----------------------------------------|-----------------------------------------|
C#|-----------------------------------------|-----------------------------------------|
G#|-----------------------------------------|-----------------------------------------|
D#|-----------------------------------------|-----------------------------------------|
G#|--5----5----5----5----5----5----5----3---|--3----3----3----3----3----3----3----3---|


   1  +  2  +  3  +  4  +   1  +  2  +  3  +  4  +
F#|-----------------------------------------|-----------------------------------------|
C#|-----------------------------------------|-----------------------------------------|
G#|-----------------------------------------|-----------------------------------------|
D#|--5----5----5----5----5----5----5--------|-----------------------------------------|
G#|-------------------------------------1---|--1----1----1----1----1----1----1----1---|


   1  +  2  +  3  +  4  +   1  +  2  +  3  +  4  +
F#|-----------------------------------------|-----------------------------------------|
C#|-----------------------------------------|-----------------------------------------|
G#|-----------------------------------------|-----------------------------------------|
D#|-------------------------------------1---|--1----1----1----1----1----1----1----1---|
G#|--5----5----5----5----5----5----5--------|-----------------------------------------|


   1  +  2  +  3  +  4  +   1  +  2  +  3  +  4  +
F#|-----------------------------------------|-----------------------------------------|
C#|-----------------------------------------|-----------------------------------------|
G#|-----------------------------------------|-----------------------------------------|
D#|--3----3----3----3----3----3----3--------|-----------------------------------------|
G#|-------------------------------------1---|--1----1----1----1----1----1----1----1---|


   1  +  2  +  3  +  4  +   1  +  2  +  3  +  4  +
F#|-----------------------------------------|-----------------------------------------|
C#|-----------------------------------------|-----------------------------------------|
G#|-----------------------------------------|-----------------------------------------|
D#|-----------------------------------------|-----------------------------------------|
G#|--5----5----5----5----5----5----5----3---|--3----3----3----3----3----3----3----3---|


   1  +  2  +  3  +  4  +   1  +  2  +  3  +  4  +
F#|-----------------------------------------|-----------------------------------------|
C#|-----------------------------------------|-----------------------------------------|
G#|-----------------------------------------|-----------------------------------------|
D#|--5----5----5----5----5----5----5--------|-----------------------------------------|
G#|-------------------------------------1---|--1----1----1----1----1----1----1----1---|


   1  +  2  +  3  +  4  +
F#|-----------------------------------------|
C#|-----------------------------------------|
G#|-----------------------------------------|
D#|-----------------------------------------|
G#|-----------------------------------------|


Vocal Section 2:

  1 e + a 2 e + a 3 e + a 4 e + a  1 e + a 2 e + a 3 e + a 4 e + a
F#|-------------------------------------------------|-------------------------------------------------|
C#|-------------------------------------------------|-------------------------------------------------|
G#|-------------------------------------------------|-------------------------------------------------|
D#|-------------------------------------------------|-------------------------------------------------|
G#|-5-----5--5--5-----5--5-----5--5--5-----5--5-----|-5--5-----5--5--5-----5--5-----5--5--5-----5--5--|


  1 e + a 2 e + a 3 e + a 4 e + a  1 e + a 2 e + a 3 e + a 4 e + a
F#|-------------------------------------------------|-------------------------------------------------|
C#|-------------------------------------------------|-------------------------------------------------|
G#|-------------------------------------------------|-------------------------------------------------|
D#|-------------------------------------------------|-------------------------------------------1-----|
G#|----5--5-----5--5--5-----5--5-----5--5--5-----5--|-5-----5--5-----5--5--5-----5--5-----3--------3--|


  1 e + a 2 e + a 3 e + a 4 e + a  1 e + a 2 e + a 3 e + a 4 e + a
F#|-------------------------------------------------|-------------------------------------------------|
C#|-------------------------------------------------|-------------------------------------------------|
G#|-------------------------------------------------|-------------------------------------------------|
D#|-------------------------------------------------|-------------------------------------------------|
G#|-1-----1--1--1-----1--1-----1--1--1-----1--1-----|-1--1-----1--1--1-----1--1-----1--1--1-----1--1--|


  1 e + a 2 e + a 3 e + a 4 e + a  1 e + a 2 e + a 3 e + a 4 e + a
F#|-------------------------------------------------|-------------------------------------------------|
C#|-------------------------------------------------|-------------------------------------------------|
G#|-------------------------------------------------|-------------------------------------------------|
D#|-------------------------------------------------|-------------------------------------3-----3--3--|
G#|----1--1-----1--1--1-----1--1-----1--1--1-----1--|-1-----1--1-----1--1--1-----1--1-----------------|


  1 e + a 2 e + a 3 e + a 4 e + a  1 e + a 2 e + a 3 e + a 4 e + a
F#|-------------------------------------------------|-------------------------------------------------|
C#|-------------------------------------------------|-------------------------------------------------|
G#|-------------------------------------------------|-------------------------------------------------|
D#|-------------------------------------------------|-------------------------------------------------|
G#|-5-----5--5--5-----5--5-----5--5--5-----5--5-----|-5--5-----5--5--5-----5--5-----5--5--5-----5--5--|


  1 e + a 2 e + a 3 e + a 4 e + a  1 e + a 2 e + a 3 e + a 4 e + a
F#|-------------------------------------------------|-------------------------------------------------|
C#|-------------------------------------------------|-------------------------------------------------|
G#|-------------------------------------------------|-------------------------------------------------|
D#|-------------------------------------------------|-------------------------------------------1-----|
G#|----5--5-----5--5--5-----5--5-----5--5--5-----5--|-5-----5--5-----5--5--5-----5--5-----3--------3--|


  1 e + a 2 e + a 3 e + a 4 e + a  1 e + a 2 e + a 3 e + a 4 e + a
F#|-------------------------------------------------|-------------------------------------------------|
C#|-------------------------------------------------|-------------------------------------------------|
G#|-------------------------------------------------|-------------------------------------------------|
D#|-------------------------------------------------|-------------------------------------------------|
G#|-1-----1--1--1-----1--1-----1--1--1-----1--1-----|-1--1-----1--1--1-----1--1-----1--1--1-----1--1--|


  1 e + a 2 e + a 3 e + a 4 e + a  1 e + a 2 e + a 3 e + a 4 e + a
F#|-------------------------------------------------|-------------------------------------------------|
C#|-------------------------------------------------|-------------------------------------------------|
G#|-------------------------------------------------|-------------------------------------------------|
D#|-------------------------------------------------|-------------------------------------3-----3--3--|
G#|----1--1-----1--1--1-----1--1-----1--1--1-----1--|-1-----1--1-----1--1--1-----1--1-----------------|


Outro:
Nothing further is played until the end of the song.

Almost there ...

Sign in to get your own page with links to favourite songs and more. You are just one click away...

Login with Facebook Login with Google