Log in

One click and you are in

Login with Facebook Login with Google

Why sign up and log in

Guitar Tabs Explorer
Perfume bass tabs for Puppy love

Bass tabs

E-Mail: sourchicken@gmail.com


|--------------------------------------------------------------------|
|                Part 1                |
|--------------------------------------------------------------------|

|----------------------------------|
|------6--------65-------------5---|
|----6--6-----6---6-----6----------|
|--4--------4---------3--6---3--3--|

|------------------------------------------|
|------65--------65---------1210-----------|
|----6---6-----6---6-----10-----10--10-----|
|--4---------4---------8-----------8---86--|

|-------------------------------------|
|------685------65------5--------5----|
|----6--------6---6------65-------6---|
|--4--------4---------3----6---3---6--|

|---------------------|
|----6-------8--------|
|-----6--------8------|
|--4---4---6----6-8~ -|


|--------------------------------------------------------------------|
|                Part 2                |
|--------------------------------------------------------------------|

|-----------------------------------|
|-------6--------65-------------5---|
|-----6--6-----6---6-----6----------|
|--64--------4---------3--6---3--3--|

|------------------------------------------|
|------65--------65---------1210-----------|
|----6---6-----6---6-----10-----10--10-----|
|--4---------4---------8-----------8---86--|

|-------------------------------------|
|------685------65------5--------5----|
|----6--------6---6------65-------6---|
|--4--------4---------3----6---3---6--|

|---------------------|
|----6-------8--------|
|-----6--------8------|
|--4---4---6----6-8~ -|

|--------------------------------------------------------------------|
|                Part 3                |
|--------------------------------------------------------------------|
  S P S P S P S P S P S P S P S P
|-----------------------------------|
|----6---6---6---6---8---8---8---8--|
|-----------------------------------|
|--4---4---4---4---6---6---6---6----|

  S P S P S P S P S P S P S P S P
|-----------------------------------------------|
|-----13----13----13----13---10---10---10---10--|
|-----------------------------------------------|
|--11----11----11----11----8----8----8----8-----|

  S P S P S P S P S P S P S P S P
|-----------------------------------|
|----3---3---3---3---8---8---8---8--|
|-----------------------------------|
|--1---1---1---1---6---6---6---6----|

  S P S P S P S P S P S P S P S P
|-----------------------------------|
|----1---1---1---1---1---3---5---5--|
|-----------------------------------|
|--0---0---0---0---0---0---0---0----|

  S P S P S P S P S P S P S P S P
|-----------------------------------|
|----6---6---6---6---8---8---8---8--|
|-----------------------------------|
|--4---4---4---4---6---6---6---6----|

  S P S P S P S P S P S P S P S P
|---------------------------------------|
|----5---5---5---5---10---10---10---10--|
|---------------------------------------|
|--3---3---3---3---8----8----8----8-----|

  S P S P S P S P S P S P S P S P
|-----------------------------------|
|----3---3---3---3---8---8---8---8--|
|-----------------------------------|
|--1---1---1---1---6---6---6---6----|

  S P S P S P S P S P S P S P
|-------------------------------|
|----1---1---1---1---1---1---1--|
|-------------------------------|
|--0---0---0---0---0---0---0----|

Key:
S = Slap
P = Pop

Order:
Part 1
Part 2
Part 3
Part 1
Part 3
Part 3

Almost there ...

Sign in to get your own page with links to favourite songs and more. You are just one click away...

Login with Facebook Login with Google