Log in

One click and you are in

Login with Facebook Login with Google

Why sign up and log in

Guitar Tabs Explorer
Tara Perdida tabs for Agora eu

Guitar tabs

Tablatura por: Scanudo
Data:14/07/2010

Banda: Tara Perdida
Musica: Agora Eu

x = Palm Muted
/ = slide from left to right
\ = slide from right to left
^ = bend
* = deixa a nota soar


Intro(3x)Guitar1
  xx   xx   xx   xx     xx   xx   xx
|------------------------------------------------|
|----7----5----------------7----5----------------|
|--------------8----8-7--------------8-7---------|
|-55---55---55---55-----55---55---55-----8-7-----|
|------------------------------------------------|


Intro()Guitar2 So entra na 2ªparte
|-----------------------|
|--7-----5-----7-----5--|
|--7-----5-----7-----5--|
|--5-----3-----5-----3--|
|-----------------------|

Intro2(4x)Guitar1
|----------------------------|
|----------------------------|
|--------5-7---------5-7--8--|
|--5-7-8-------5-7-8---------|
|----------------------------|

Intro2(2x)Guitar2
|-----------------------|
|--7777--5555-----------|
|--7777--5555---7777----|
|--5555--3333---7777----|
|---------------5555----|

Preverso(estes acordes mudando de ritmo)
|-----------------------|
|--7777--5555-----------|
|--7777--5555---7777----|
|--5555--3333---7777----|
|---------------5555----|

Verso(eu seei...)
   xxxx  xxxx   xxxx
|-----------------------|
|--7777--5555-----------|
|--7777--5555---7777----|
|--5555--3333---7777----|
|---------------5555----|

Refrão(agora eu...)
|---------------------|
|---------------------|
|--5555--7777---------|
|--5555--7777---------|
|--3333--5555---------|

Refrão2(wooooohhh)
|-----------------------|
|--7777--5555-----------|
|--7777--5555---7777----|
|--5555--3333---7777----|
|---------------5555----|

Verso(4x)
Refrão(2x)
Refrão2(com paragens nos 2 ultimos acordes)
Intro2(4x)

Intro(3x)
Intro2(Com solo diferente) (nao ponho estes solos pois nem ao vivo tocam igual)
Refrão(2x)

Almost there ...

Sign in to get your own page with links to favourite songs and more. You are just one click away...

Login with Facebook Login with Google