Log in

One click and you are in

Login with Facebook Login with Google

Why sign up and log in

Guitar Tabs Explorer
Percy Faith bass tabs for Lets hang on

Bass tabs

Tuning: Standard (E A D G)

Difficulty: Novice


0:17

G|----------------------------------------------------------------|
D|----------------------------------------------------------------|
A|1-----------1---1---------------1-----------1---1---------------|
E|----------------------------------------------------------------|

0:24

G|----------------------------------------------------------------|
D|----------------------------------------------------------------|
A|1-----------1---1-----------1---1-----------1---1-----------1---|
E|----------------------------------------------------------------|

G|----------------------------------------------------------------|
D|--------------------------------3-----------3---3-----------3---|
A|1-----------1---1-----------1-----------------------------------|
E|----------------------------------------------------------------|

G|----------------------------------------------------------------|
D|----------------3-----------3-----------------------------------|
A|3-----------3-------------------5-----------5---------------3---|
E|------------------------------------------------3-------3-------|

G|----------------------------------------------------------------|
D|--------0---1-----------2---3-------3-------3---3---3---3---3---|
A|----------------------------------------------------------------|
E|----------------------------------------------------------------|

0:37

G|----------------------------------------------------------------|
D|------------1---1-----------1---------------1---1-----------1---|
A|1-------------------------------1-------------------------------|
E|----------------------------------------------------------------|

G|----------------------------------------------------------------|
D|----------------------------------------------------------------|
A|1-----------1---1---1-------1---0-----------0---0---------------|
E|----------------------------------------------------3-------1---|

G|----------------------------------------------------------------|
D|--------------------------------3-----------3---3---3---3-------|
A|3-----------3---3---3-------3-------------------------------3---|
E|----------------------------------------------------------------|

G|----------------------------------------------------------------|
D|--------------------------------3-----------3---3---3---3-------|
A|------------3---3---3-------3-------------------------------3---|
E|----------------------------------------------------------------|

0:50

G|----------------------------------------------------------------|
D|--------------------------------3-----------3---3---3---3-------|
A|------------3---3---3-------3-------------------------------1---|
E|----------------------------------------------------------------|

G|----------------------------------------------------------------|
D|----------------------------------------------------------------|
A|------------1---1---1-------1---0-----------0---0---------------|
E|----------------------------------------------------3-------1---|

G|----------------------------------------------------------------|
D|--------------------------------3-----------3---3---3---3-------|
A|3-----------3---3---3-------3-------------------------------3---|
E|----------------------------------------------------------------|

G|----------------------------------------------------------------|
D|--------------------------------3-----------3---3---3---3-------|
A|------------3---3---3-------3-------------------------------3---|
E|----------------------------------------------------------------|

1:03

G|----------------------------------------------------------------|
D|--------------------------------3-----------3---3---3---3---3---|
A|------------3---3---3-------3-----------------------------------|
E|----------------------------------------------------------------|

G|----------------------------------------------------------------|
D|----------------------------------------------------------------|
A|1-----------1---1---1-------1---1-----------1---1---1-------1---|
E|----------------------------------------------------------------|

G|----------------------------------------------------------------|
D|----------------------------3-------3---1---0-------------------|
A|3-----------3---3---3---3-----------------------3---1---0-------|
E|----------------------------------------------------------------|

G|--------------------------------|
D|3-------3-------3-------3-------|
A|--------------------------------|
E|--------------------------------|

1:14

G|----------------------------------------------------------------|
D|----------------------------------------------------------------|
A|1-----------1---1-----------1---1-----------1---1-----------1---|
E|----------------------------------------------------------------|

G|----------------------------------------------------------------|
D|--------------------------------3-----------3---3-----------3---|
A|1-----------1---1-----------1-----------------------------------|
E|----------------------------------------------------------------|

G|----------------------------------------------------------------|
D|----------------3-----------3-----------------------------------|
A|3-----------3-------------------5-----------5---------------3---|
E|------------------------------------------------3---------------|

G|----------------------------------------------------------------|
D|--------0---1-----------2---3-------3-------3---3---3---3---3---|
A|----------------------------------------------------------------|
E|----------------------------------------------------------------|

1:27

G|--------------------------------------------3---3---1---0-------|
D|------------1---1-----------1-------------------------------3---|
A|1-------------------------------1-------------------------------|
E|----------------------------------------------------------------|

G|----------------------------------------------------------------|
D|1-----------1---1-----------1---0-----------0---0---------------|
A|----------------------------------------------------3-------1---|
E|----------------------------------------------------------------|

G|----------------------------------------------------------------|
D|3-----------3---3---3-------3-------------------------------3---|
A|--------------------------------1-----------1---1---1---1-------|
E|----------------------------------------------------------------|

G|----------------------------------------------------------------|
D|------------3---3---3-------3-------------------------------3---|
A|--------------------------------1-----------1---1---1---1-------|
E|----------------------------------------------------------------|

G|----------------------------------------------------------------|
D|------------3---3---3-------3-------------------------------1---|
A|--------------------------------1-----------1---1---1---1-------|
E|----------------------------------------------------------------|

1:43

G|----------------------------------------------------------------|
D|1-----------1---1---1-------1---0-----------0---0---------------|
A|----------------------------------------------------3-------1---|
E|----------------------------------------------------------------|

G|----------------------------------------------------------------|
D|3-----------3---3---3-------3-------------------------------3---|
A|--------------------------------1-----------1---1---1---1-------|
E|----------------------------------------------------------------|

G|----------------------------------------------------------------|
D|------------3---3---3-------3-------------------------------3---|
A|--------------------------------1-----------1---1---1---1-------|
E|----------------------------------------------------------------|

G|----------------------------------------------------------------|
D|------------3---3---3-------3-----------------------------------|
A|--------------------------------1-----------1---1---1---1---1---|
E|----------------------------------------------------------------|

1:56

G|----------------------------------------------------------------|
D|1-----------1---1---1-------1---1-----------1---1---1-------1---|
A|----------------------------------------------------------------|
E|----------------------------------------------------------------|

G|------------------------------------3---1---0-------------------|
D|3-----------3---3---3---3-----------------------3---1---0-------|
A|----------------------------1-------------------------------3---|
E|----------------------------------------------------------------|

G|--------------------------------|
D|--------------------------------|
A|1-------1-------1-------1-------|
E|--------------------------------|

2:04

G|----------------------------------------------------------------|
D|1-----------1---1-----------1---1-----------1---1-----------1---|
A|----------------------------------------------------------------|
E|----------------------------------------------------------------|

G|----------------------------------------------------------------|
D|1-----------1---1-----------1-----------------------------------|
A|--------------------------------1-----------1---1-----------1---|
E|----------------------------------------------------------------|

G|----------------------------------------------------------------|
D|3-----------3-------------------5-----------5---------------3---|
A|----------------1-----------1-------------------3-------3-------|
E|----------------------------------------------------------------|

G|----------------------------------------------------------------|
D|--------3---3-----------3---------------------------------------|
A|----------------------------1---------------1---1---1---1-------|
E|----------------------------------------------------------------|

2:17

G|----------------------------------------------------------------|
D|1-----------1---1-----------1-----------------------------------|
A|--------------------------------1-----------1---1---1-------1---|
E|----------------------------------------------------------------|

G|----------------------------------------------------------------|
D|1-----------1---1-----------1---1-------------------------------|
A|--------------------------------------------1---1---1-----------|
E|----------------------------------------------------------------|

Until fadeout.

G|----------------------------------------------------------------|
D|1-----------1---1-----------1---1-------------------------------|
A|--------------------------------------------1---1---1-------1---|
E|----------------------------------------------------------------|

Almost there ...

Sign in to get your own page with links to favourite songs and more. You are just one click away...

Login with Facebook Login with Google