Log in

One click and you are in

Login with Facebook Login with Google

Why sign up and log in

Guitar Tabs Explorer
Pentakill bass tabs for Last whisper

Bass tabs

Key: F#m

Time signature: 4/4


Intro: 00:07:

 1 e + i 2 e + i 3 e + i 4 e + i 1 e + i 2 e + i 3 e + i 4 e + i
G|--------------------------------|--------------------------------| \
D|--------------------------------|--------------------------------| |
A|--------------------------------|--------------------------------| |
D|7-------------------------------|(7)-----------------------------| |

                                   |
 1 e + i 2 e + i 3 e + i 4 e + i 1 e + i 2 e + i 3 e + i 4 e + i  |
G|--------------------------------|--------------------------------| |
D|--------------------------------|--------------------------------| |
A|--------------------------------|--------------------------------| |
D|9-------------------------------|(9)-----------------------------| |
                                   | play
 1 e + i 2 e + i 3 e + i 4 e + i 1 e + i 2 e + i 3 e + i 4 e + i  | x2
G|--------------------------------|--------------------------------| |
D|--------------------------------|--------------------------------| |
A|--------------------------------|--------------------------------| |
D|4-------------------------------|(4)-----------------------------| |
                                   |
 1 e + i 2 e + i 3 e + i 4 e + i 1 e + i 2 e + i 3 e + i 4 e + i  |
G|--------------------------------|--------------------------------| |
D|--------------------------------|--------------------------------| |
A|--------------------------------|--------------------------------| |
D|0-------------------------------|(0)-------------------------0---| /


Verse 1: 00:34:

 1 e + i 2 e + i 3 e + i 4 e + i 1 e + i 2 e + i 3 e + i 4 e + i
G|--------------------------------|--------------------------------| \
D|--------------------------------|--------------------------------| |
A|--------------------------------|--------------------------------| |
D|4-4-4-4-4-4-4-4-4-4-4-4-4-4-4-4-|4-4-4-4-4-4-4-4-4-4-4-4-4-4-4-4-| |
                                   | play
 1 e + i 2 e + i 3 e + i 4 e + i 1 e + i 2 e + i 3 e + i 4 e + i  | x2
G|--------------------------------|--------------------------------| |
D|--------------------------------|--------------------------------| |
A|--------------------------------|--------------------------------| |
D|4-4-4-4-4-4-4-4-4-4-4-4-4-4-4-4-|9-9-7-7-0-0-0-0-0-0-0-0-0-0-0-0-| /

Pre-chorus: 00:49:

 1 e + i 2 e + i 3 e + i 4 e + i 1 e + i 2 e + i 3 e + i 4 e + i
G|--------------------------------|--------------------------------|
D|--------------------------------|--------------------------------|
A|--------------------------------|--------------------------------|
D|4-4-4-4-4-4-4-4-4-4-4-4-4-4-4-4-|4-4-4-4-4-4-4-4-4-4-4-4-4-4-4-4-|

 1 e + i 2 e + i 3 e + i 4 e + i 1 e + i 2 e + i 3 e + i 4 e + i
G|--------------------------------|--------------------------------|
D|--------------------------------|--------------------------------|
A|--------------------------------|--------------------------------|
D|2-2-2-2-2-2-2-2-2-2-2-2-2-2-2-2-|2-2-2-2-2-2-2-2-2-2-2-2-2-2-2-2-|

 1 e + i 2 e + i 3 e + i 4 e + i 1 e + i 2 e + i 3 e + i 4 e + i
G|--------------------------------|--------------------------------|
D|--------------------------------|--------------------------------|
A|--------------------------------|--------------------------------|
D|1-1-1-1-1-1-1-1-1-1-1-1-1-1-1-1-|1-1-1-1-1-1-1-1-1-1-1-1-1-1-1-1-|

 1 e + i 2 e + i 3 e + i 4 e + i 1 e + i 2 e + i 3 e + i 4 e + i
G|--------------------------------|-----------------------------------------------|
D|--------------------------------|-----------------------------------------------|
A|--------------------------------|-----------------------------------------------|
D|0-0-0-0-0-0-0-0-0-0-0-0-0-0-0-0-|12-12-12-12-12-12-12-12-0-----0-----0----------|

(Rest one bar of 2/4)


Chorus: 01:03:

 1 e + i 2 e + i 3 e + i 4 e + i 1 e + i 2 e + i 3 e + i 4 e + i
G|--------------------------------|--------------------------------| \
D|--------------------------------|--------------------------------| |
A|--------------------------------|--------------------------------| |
D|7-------------------------------|(7)-----------------------------| |
                                   |
 1 e + i 2 e + i 3 e + i 4 e + i 1 e + i 2 e + i 3 e + i 4 e + i  |
G|--------------------------------|--------------------------------| |
D|--------------------------------|--------------------------------| |
A|--------------------------------|--------------------------------| |
D|9-------------------------------|(9)-----------------------------| |
                                   | play
 1 e + i 2 e + i 3 e + i 4 e + i 1 e + i 2 e + i 3 e + i 4 e + i  | x2
G|--------------------------------|--------------------------------| |
D|--------------------------------|--------------------------------| |
A|--------------------------------|--------------------------------| |
D|4-------------------------------|(4)-----------------------------| |
                                   |
 1 e + i 2 e + i 3 e + i 4 e + i 1 e + i 2 e + i 3 e + i 4 e + i  |
G|--------------------------------|--------------------------------| |
D|--------------------------------|--------------------------------| |
A|--------------------------------|--------------------------------| |
D|0-------------------------------|(0)-------------------------0---| /


Verse 2: 01:30:

(Rest 4 bars)

 1 e + i 2 e + i 3 e + i 4 e + i 1 e + i 2 e + i 3 e + i 4 e + i
G|--------------------------------|--------------------------------|
D|--------------------------------|--------------------------------|
A|--------------------------------|--------------------------------|
D|4-4-4-4-4-4-4-4-4-4-4-4-4-4-4-4-|4-4-4-4-4-4-4-4-4-4-4-4-4-4-4-4-|

 1 e + i 2 e + i 3 e + i 4 e + i 1 e + i 2 e + i 3 e + i 4 e + i
G|--------------------------------|--------------------------------|
D|--------------------------------|--------------------------------|
A|--------------------------------|--------------------------------|
D|4-4-4-4-4-4-4-4-4-4-4-4-4-4-4-4-|9-9-7-7-0-0-0-0-0-0-0-0-0-0-0-0-|


Pre-chorus: 01:44:

 1 e + i 2 e + i 3 e + i 4 e + i 1 e + i 2 e + i 3 e + i 4 e + i
G|--------------------------------|--------------------------------|
D|--------------------------------|--------------------------------|
A|--------------------------------|--------------------------------|
D|4-4-4-4-4-4-4-4-4-4-4-4-4-4-4-4-|4-4-4-4-4-4-4-4-4-4-4-4-4-4-4-4-|

 1 e + i 2 e + i 3 e + i 4 e + i 1 e + i 2 e + i 3 e + i 4 e + i
G|--------------------------------|--------------------------------|
D|--------------------------------|--------------------------------|
A|--------------------------------|--------------------------------|
D|2-2-2-2-2-2-2-2-2-2-2-2-2-2-2-2-|2-2-2-2-2-2-2-2-2-2-2-2-2-2-2-2-|

 1 e + i 2 e + i 3 e + i 4 e + i 1 e + i 2 e + i 3 e + i 4 e + i
G|--------------------------------|--------------------------------|
D|--------------------------------|--------------------------------|
A|--------------------------------|--------------------------------|
D|1-1-1-1-1-1-1-1-1-1-1-1-1-1-1-1-|1-1-1-1-1-1-1-1-1-1-1-1-1-1-1-1-|

 1 e + i 2 e + i 3 e + i 4 e + i 1 e + i 2 e + i 3 e + i 4 e + i
G|--------------------------------|-----------------------------------------------|
D|--------------------------------|-----------------------------------------------|
A|--------------------------------|-----------------------------------------------|
D|0-0-0-0-0-0-0-0-0-0-0-0-0-0-0-0-|12-12-12-12-12-12-12-12-0-----0----------------|


Bridge: 01:58:

(Distortion ON)

 1 e + i 2 e + i 3 e + i 4 e + i 1 e + i 2 e + i 3 e + i 4 e + i
G|--------------------------------|--------------------------------|
D|--------------------------------|--------------------------------|
A|--------------------------------|--------------------------------|
D|9---------------7---9---7---9---|(9)-7---9---7---9---9---9-p-7---|

 1 e + i 2 e + i 3 e + i 4 e + i 1 e + i 2 e + i 3 e + i 4 e + i
G|--------------------------------|--------------------------------|
D|--------------------------------|--------------------------------|
A|--------------------------------|--------------------------------|
D|0---------------6---0---0---7---|0---6---0---7---0---6---7---6---|

 1 e + i 2 e + i 3 e + i 4 e + i 1 e + i 2 e + i 3 e + i 4 e + i
G|--------------------------------|--------------------------------|
D|4-------------------------------|--------------------------------|
A|--------------------------------|----------------4---4---4-p-0---|
D|----------------2---4---2---4---|(4)-2---4---2-------------------|

 1 e + i 2 e + i 3 e + i 4 e + i 1 e + i 2 e + i 3 e + i 4 e + i
G|--------------------------------|--------------------------------|
D|--------------------------------|--------------------------------|
A|--------------------------------|--------------------------------|
D|0---------------6---0---0---7---|0---6---0---7---0---7---9---9---|


Solo: 02:11:

 1 e + i 2 e + i 3 e + i 4 e + i 1 e + i 2 e + i 3 e + i 4 e + i
G|--------------------------------|--------------------------------| \
D|--------------------------------|--------------------------------| |
A|--------------------------------|--------------------------------| |
D|9---------------7---9---7---9---|(9)-7---9---7---9---9---9-p-7---| |
                                   |
 1 e + i 2 e + i 3 e + i 4 e + i 1 e + i 2 e + i 3 e + i 4 e + i  |
G|--------------------------------|--------------------------------| |
D|--------------------------------|--------------------------------| |
A|--------------------------------|--------------------------------| |
D|0---------------6---0---0---7---|0---6---0---7---0---6---7---6---| |
                                   | play
 1 e + i 2 e + i 3 e + i 4 e + i 1 e + i 2 e + i 3 e + i 4 e + i  | x2
G|--------------------------------|--------------------------------| |
D|4-------------------------------|--------------------------------| |
A|--------------------------------|----------------4---4---4-p-0---| |
D|----------------2---4---2---4---|(4)-2---4---2-------------------| |
                                   |
 1 e + i 2 e + i 3 e + i 4 e + i 1 e + i 2 e + i 3 e + i 4 e + i  |
G|--------------------------------|--------------------------------| |
D|--------------------------------|--------------------------------| |
A|--------------------------------|--------------------------------| |
D|0---------------6---0---0---7---|0---6---0---7---0---7---9---9---| /

(Distortion OFF)


Chorus: 02:39:

 1 e + i 2 e + i 3 e + i 4 e + i 1 e + i 2 e + i 3 e + i 4 e + i
G|--------------------------------|--------------------------------| \
D|--------------------------------|--------------------------------| |
A|--------------------------------|--------------------------------| |
D|7-------------------------------|(7)-----------------------------| |
                                   |
 1 e + i 2 e + i 3 e + i 4 e + i 1 e + i 2 e + i 3 e + i 4 e + i  |
G|--------------------------------|--------------------------------| |
D|--------------------------------|--------------------------------| |
A|--------------------------------|--------------------------------| |
D|9-------------------------------|(9)-----------------------------| |
                                   | play
 1 e + i 2 e + i 3 e + i 4 e + i 1 e + i 2 e + i 3 e + i 4 e + i  | x2
G|--------------------------------|--------------------------------| |
D|--------------------------------|--------------------------------| |
A|--------------------------------|--------------------------------| |
D|4-------------------------------|(4)-----------------------------| |
                                   |
 1 e + i 2 e + i 3 e + i 4 e + i 1 e + i 2 e + i 3 e + i 4 e + i  |
G|--------------------------------|--------------------------------| |
D|--------------------------------|--------------------------------| |
A|--------------------------------|--------------------------------| |
D|0-------------------------------|(0)-----------------------------| /


Outro: 03:06:

(Distortion ON)

 1 e + i 2 e + i 3 e + i 4 e + i 1 e + i 2 e + i 3 e + i 4 e + i
G|--------------------------------|--------------------------------| \
D|--------------------------------|--------------------------------| |
A|--------------------------------|--------------------------------| |
D|9---------------7---9---7---9---|(9)-7---9---7---9---9---9-p-7---| |
                                   |
 1 e + i 2 e + i 3 e + i 4 e + i 1 e + i 2 e + i 3 e + i 4 e + i  |
G|--------------------------------|--------------------------------| |
D|--------------------------------|--------------------------------| |
A|--------------------------------|--------------------------------| |
D|0---------------6---0---0---7---|0---6---0---7---0---6---7---6---| |
                                   | play
 1 e + i 2 e + i 3 e + i 4 e + i 1 e + i 2 e + i 3 e + i 4 e + i  | x2
G|--------------------------------|--------------------------------| |
D|4-------------------------------|--------------------------------| |
A|--------------------------------|----------------4---4---4-p-0---| |
D|----------------2---4---2---4---|(4)-2---4---2-------------------| |
                                   |
 1 e + i 2 e + i 3 e + i 4 e + i 1 e + i 2 e + i 3 e + i 4 e + i  |
G|--------------------------------|--------------------------------| |
D|--------------------------------|--------------------------------| |
A|--------------------------------|--------------------------------| |
D|0---------------6---0---0---7---|0---6---0---7---0---7---9---9---| /

☠☠☠☠☠☠☠☠☠☠☠☠☠☠☠☠☠☠☠☠☠☠☠☠☠☠☠☠☠☠☠☠☠☠☠☠

| (n) Ligature
| p  Pull-off

☠☠☠☠☠☠☠☠☠☠☠☠☠☠☠☠☠☠☠☠☠☠☠☠☠☠☠☠☠☠☠☠☠☠☠☠

Almost there ...

Sign in to get your own page with links to favourite songs and more. You are just one click away...

Login with Facebook Login with Google