Log in

One click and you are in

Login with Facebook Login with Google

Why sign up and log in

Guitar Tabs Explorer
Pentagram bass tabs for Sign of the wolf

Bass tabs

Tuning: Half-Step Down (Eb Ab Db Gb)


Intro 1: Start immediately

Gb|--------------------------------|
Db|--------------------------------| X1
Ab|--------------------------------|
Eb|-0--0-0-0-0-0-0-0-0-3-2-1--p0---|

Gb|--------------------------------|
Db|--------------------------------|
Ab|--------------------------------| X3
Eb|-0-0-0-0-0-0-0-0-3-2-1--p0------|

Gb|--------------------------------|
Db|--------------------------------| X1
Ab|--------------------------------|
Eb|-0--0-0-0-0-0-0-0-0-3-2-1--p0---|

Gb|--------------------------------|
Db|--------------------------------| X1 Accentuate the last note
Ab|--------------------------------|
Eb|-0-0-0-0-0-0-0-0-0-0-0-0-0-0->0-|


Verse 1: Start at 18 second

Gb|---------------------------------------------------------|
Db|---------------------------------------------------------|
Ab|----------------3--3-3-3-3-0--0-0-0-0-5-5-7--7-7-7-7-----|
Eb|0-0-0-0-0-0-3-3------------------------------------------|

Gb|---------------------------------------------------------|
Db|---------------------------------------------------------|
Ab|--------------------3--3-3-3-3-0--0-0-0-0-5-5-7--7-7-7-7-|
Eb|-0--0-0-0-0-0-0-3-3--------------------------------------|


Chorus 1: Start at 29 second

Gb|---------------------------------------------------------------------|
Db|---------------------------------------------------------------------|
Ab|-5-5-5-5-5-5-5-5-5-3-3-3-3-3-3-3-3-3-7-7-7-7-7-7-7-7--5-5-7--7-7-7-7-| X2
Eb|---------------------------------------------------------------------|


Verse 2: Same as verse 1

Gb|---------------------------------------------------------|
Db|---------------------------------------------------------|
Ab|-------------------3--3-3-3-3-0--0-0-0-0-5-5-7--7-7-7-7--| X2
Eb|-0--0-0-0-0-0-0-3-3--------------------------------------|


Chorus 2: Same as chorus 2

Gb|---------------------------------------------------------------------|
Db|---------------------------------------------------------------------|
Ab|-5-5-5-5-5-5-5-5-5-3-3-3-3-3-3-3-3-3-7-7-7-7-7-7-7-7--5-5-7--7-7-7-7-| X2
Eb|---------------------------------------------------------------------|


Bridge: Start at 1.07, you can play without the (0) its a matter of taste !

Gb|------------------------------|
Db|----5-----5-------------------|
Ab|-5-7-7--5-7-7--5-5-7--0-0-0-0-| X2
Eb|------------------------------|

Guitar solo: Start at 1.15, first part same as Verse é then of chorus 1

Gb|---------------------------------------------------------------------|
Db|---------------------------------------------------------------------|
Ab|-------------------3--3-3-3-3-0--0-0-0-0-5-5-7--7-7-7-7--------------| X2
Eb|-0--0-0-0-0-0-0-3-3--------------------------------------------------|

Gb|---------------------------------------------------------------------|
Db|---------------------------------------------------------------------|
Ab|-5-5-5-5-5-5-5-5-5-3-3-3-3-3-3-3-3-3-7-7-7-7-7-7-7-7--5-5-7--7-7-7-7-| X2
Eb|---------------------------------------------------------------------|

Then you can repeat all this part and you will have the second part of the song


Intro 2: Start at 1.40

Gb|--------------------------------|
Db|--------------------------------| X1
Ab|--------------------------------|
Eb|-0--0-0-0-0-0-0-0-0-3-2-1--p0---|

Gb|--------------------------------|
Db|--------------------------------|
Ab|--------------------------------| X3
Eb|-0-0-0-0-0-0-0-0-3-2-1--p0------|

Gb|--------------------------------|
Db|--------------------------------| X1
Ab|--------------------------------|
Eb|-0--0-0-0-0-0-0-0-0-3-2-1--p0---|

Gb|--------------------------------|
Db|--------------------------------| X1 Accentuate the last note
Ab|--------------------------------|
Eb|-0-0-0-0-0-0-0-0-0-0-0-0-0-0->0-|


Verse 3:
Gb|---------------------------------------------------------|
Db|---------------------------------------------------------|
Ab|----------------3--3-3-3-3-0--0-0-0-0-5-5-7--7-7-7-7-----|
Eb|0-0-0-0-0-0-3-3------------------------------------------|

Gb|---------------------------------------------------------|
Db|---------------------------------------------------------|
Ab|--------------------3--3-3-3-3-0--0-0-0-0-5-5-7--7-7-7-7-|
Eb|-0--0-0-0-0-0-0-3-3--------------------------------------|


Chorus 3:

Gb|---------------------------------------------------------------------|
Db|---------------------------------------------------------------------|
Ab|-5-5-5-5-5-5-5-5-5-3-3-3-3-3-3-3-3-3-7-7-7-7-7-7-7-7--5-5-7--7-7-7-7-| X2
Eb|---------------------------------------------------------------------|


Verse 4:

Gb|---------------------------------------------------------|
Db|---------------------------------------------------------|
Ab|-------------------3--3-3-3-3-0--0-0-0-0-5-5-7--7-7-7-7--| X2
Eb|-0--0-0-0-0-0-0-3-3--------------------------------------|


Chorus 4: Same as chorus 2

Gb|---------------------------------------------------------------------|
Db|---------------------------------------------------------------------|
Ab|-5-5-5-5-5-5-5-5-5-3-3-3-3-3-3-3-3-3-7-7-7-7-7-7-7-7--5-5-7--7-7-7-7-| X2
Eb|---------------------------------------------------------------------|


Bridge 2:

Gb|------------------------------|
Db|----5-----5-------------------|
Ab|-5-7-7--5-7-7--5-5-7--0-0-0-0-| X2
Eb|------------------------------|

Guitar solo 2:

Gb|---------------------------------------------------------------------|
Db|---------------------------------------------------------------------|
Ab|-------------------3--3-3-3-3-0--0-0-0-0-5-5-7--7-7-7-7--------------| X2
Eb|-0--0-0-0-0-0-0-3-3--------------------------------------------------|

Gb|---------------------------------------------------------------------|
Db|---------------------------------------------------------------------|
Ab|-5-5-5-5-5-5-5-5-5-3-3-3-3-3-3-3-3-3-7-7-7-7-7-7-7-7--5-5-7--7-7-7-7-| X2
Eb|---------------------------------------------------------------------|


Ending: Pay attention the last measure is tricky

Gb|---------------------------------|
Db|----5-----5----------------------|
Ab|-5-7-7--5-7-7--5-5-7-------------| X3
Eb|---------------------------------|

Gb|---------------------------------|
Db|----5-----5----------------------|
Ab|-5-7-7--5-7-7--5-5-7--0-0--5-5-7-| X1
Eb|---------------------------------|


************************************

| p  Pull-off
| r  Release
| >  Accented note
| /  Slide up
| \  Slide down

************************************

Almost there ...

Sign in to get your own page with links to favourite songs and more. You are just one click away...

Login with Facebook Login with Google