Log in

One click and you are in

Login with Facebook Login with Google

Why sign up and log in

Guitar Tabs Explorer
Pentagram bass tabs for Hurricane

Bass tabs

Pentagram - Hurricane

~ = vibrato
Intro
G|--------------------------------------------------|
D|---------------------8~~~ -----------------8--/12\|
A|----------------8-10------------------8-10--------| x2
E|-7---7-7-9-10--------------8---8-8-10-------------|


Riff 1
G|--------------------------------------------------|
D|----------------------10--8~~~ -------------------|
A|-----------10-10-10-8-----------------------------| x4
E|--10----10----------------------------------------|


Riff 2
G|--------------------------------------------------|
D|-10-10-8-------------10-10-8----------------------|
A|----------10-8---------------10-8-----------------|
E|---------------10-8~~ ------------10-8-9----------|


Riff 1 x2


Riff 3
G|--------------------------------------------------|
D|--------------------------------------------------|
A|--------------------------------------------------| x4
E|-3-x16---0-x8---1-x4---2-x4-----------------------|


Intro x2


Riff 1 x4


Riff 3
G|------------------------------------------------|
D|---------------------------------/12\-----------|
A|-----------8-----------8-9-10-------------------| x12
E|--10----10---10----10---------------------------|


Riff 4
G|-------------------------------------------|
D|-------------------------------------------|
A|-------------------------------------------| x3
E|--8-8---8-9-9---9-10-10--------------------|


Fill
G|--------------------------------------------------|
D|-12-10-8------------------------------------------|
A|---------10-8------------/14\---------------------|
E|--------------10-8-7------------------------------|


Intro x2


Outro
G|---------------------------------------------|
D|-10-10-8-------------------------------------|
A|----------10-8----8-9-10---------------------|

Almost there ...

Sign in to get your own page with links to favourite songs and more. You are just one click away...

Login with Facebook Login with Google