Log in

One click and you are in

Login with Facebook Login with Google

Why sign up and log in

Guitar Tabs Explorer
Pentagram tabs for Give me something to kill the pain

Give Me Something To Kill The Pain tab - Pentagram

Pentagram tabs for Give me something to kill the pain

Guitar tabs with lyrics

Album:       Anatolia
 Tabbed by:   Paul (sitar5@unm.edu)
 Intro/Chorus
 e|---------------|--------------------------------|
 b|---------------|--------------------------------|
 g|-5s7-7--5s7-7--|-3--5--5------------------------|
 d|-5s7-7--5s7-7--|-3--5--5---3-2-0-2-0---0--------|
 a|-3s5-5--3s5-5--|-1--3--3-------------3---1------|
 e|---------------|--------------------------------|
                              ^^^^^^^^^^^^^^^
                               close enough


 This is the harmony that's played over riff1

 e|----------5-----------5--|--------------------|
 b|-5h6p5h6-----5h6p5h6-----|-6--5---1-----------|
 g|-------------------------|--------------------|
 d|-------------------------|--------------------|
 a|-------------------------|--------------------|
 e|-------------------------|--------------------|




 Verse, part1:

 As far as I can tell, the 1st half of the verse has
 only bass playing.  But if you play a A chord diagramDmDm chord over
 it, it fits in pretty nicely.



 Verse, part2:

 The second half of the verse goes something like this:

 e|---------------------|
 b|-------------------0-|
 g|-0--2h3--0-0--2h3----| etc.  Play it a bunch of times
 d|---------------------|       and vary it somewhat.
 a|---------------------|
 e|---------------------|



 Prechorus:

 e|----------------|----------------------|
 b|----------------|----------------------|
 g|-2-2-3-5----7-7-|10-10-10--12---12-12--|
 d|-2-2-3-5----7-7-|10-10-10--12---12-12--|
 a|-0-0-1-3----5-5-|-8--8--8--10---10-10--|
 e|----------------|----------------------|

 e|----------------|------------|
 b|----------------|------------|
 g|-14-14-14-5---3-|-5-5-5--7---|
 d|-14-14-14-5---3-|-5-5-5--7---|
 a|-12-12-12-3---1-|-3-3-3--5---|
 e|----------------|------------|


 Solo:   1st half, play a clean A chord diagramDmDm
         2nd half, play a distorted A chord diagramDmDm



 Ok.  Here's the order of the song:


 Intro/Chorus

 Verse (part1 then part2)

 Prechorus

 Intro/Chorus

 Verse (part1 then part2)

 Prechorus

 Intro/Chorus

 Solo

 Prechorus

 Intro/Chorus


 I think that's about it.  If you have any questions, comments,
 complaints, additions, or corrections, please email me at
 sitar5@unm.edu

Almost there ...

Sign in to get your own page with links to favourite songs and more. You are just one click away...

Login with Facebook Login with Google