Log in

One click and you are in

Login with Facebook Login with Google

Why sign up and log in

Guitar Tabs Explorer
Michael Penn bass tabs for No myth

Bass tabs with lyrics

Standard tuning (EADG)

🏷Legend:
/ = slide up
\ = slide down
v = vibrato
r = rest
h = hammer on
p = pull off
() = sustained and/or ghost note
s = 16th note (appears above bar)
a = acciaccatura (appears above bar)

INTRO:        |VERSE 1:
   (Rest x4)   |  (Rest x8)
G |-----------------||-----------------|
D |-----------------||-----------------|
A |-----------------||-----------------|
E |-r---------------||-----------------|
  1 & 2 & 3 & 4 &  1 & 2 & 3 & 4 &


VERSE 2:
                                 ss
G |------------------|-----------------|-----------------|------------7---\-|
D |-10-----\-7-------|-5v--------------|-3-------5-------|(5)----55/9-------|
A |------------------|-----------------|-----------------|------------------|
E |------------------|-----------------|-----------------|------------------|
  1 & 2 & 3 & 4 &  1 & 2 & 3 & 4 &  1 & 2 & 3 & 4 &  1 & 2 & 3 & 4 &

G |-----------------|-----------------|------------------|-------------------|-----------------|
D |-----------------|-----------------|------------------|-------------------|-----------------|
A |-8-------7-------|(7)--------------|-8----/--11-------|-12-------10-------|-9-------r-------|
E |-----------------|-----------------|------------------|-------------------|-----------------|
  1 & 2 & 3 & 4 &  1 & 2 & 3 & 4 &  1 & 2 & 3 & 4 &  1 & 2 & 3 & 4 &  1 & 2 & 3 & 4 &


CHORUS 1:

G |-----------------|-----------------|-----------------|-----------------|
D |-----------------|-----------------|-----------------|-----------------|
A |-----------------|-----------------|-----------------|-----------------|
E |-1---1-1-1---1-1/|-5---5-7-8---8-\-|-1---1-1-1-0-1-0-|-3-----3-2---r-0-|
  1 & 2 & 3 & 4 &  1 & 2 & 3 & 4 &  1 & 2 & 3 & 4 &  1 & 2 & 3 & 4 &

G |-----------------|-----------------|-----------------|-----------------|
D |-----------------|-----------------|-----------------|-----------------|
A |-----------------|-5-----\-1-------|-3---------------|-3-----------3---|
E |-1---1-1-1---1-/-|-----------------|---------5-------|---------3-5---5-|
  1 & 2 & 3 & 4 &  1 & 2 & 3 & 4 &  1 & 2 & 3 & 4 &  1 & 2 & 3 & 4 &


VERSE 2:

G |-----------------|-----------------|-----------------|-----------------|
D |-----------------|-----------------|-----------------|-----------------|
A |-3---------------|-3---------------|--------10-\-5---|-2---5/(10)------|
E |---------5-------|---------5-----3-|-1---------------|-----------------|
  1 & 2 & 3 & 4 &  1 & 2 & 3 & 4 &  1 & 2 & 3 & 4 &  1 & 2 & 3 & 4 &

                                  sss s
G |-----------------|-----------------|-----------------|------------------|
D |-----------------|-----------------|-----------------|---------7-777p5--|
A |--------10-\-5---|-----------------|-3---------------|-3----/---------7-|
E |-1---------------|-7-\-3-----------|---------5-------|------------------|
  1 & 2 & 3 & 4 &  1 & 2 & 3 & 4 &  1 & 2 & 3 & 4 &  1 & 2 & 3 & 4 &

G |-----------------|-----------------|-----------------|-----------------|
D |-----------------|-----------------|-----------------|-----------------|
A |-3---------------|-3---------------|--------10-\-5---|-2---5/(10)------|
E |---------5-------|---------5-----3-|-1---------------|-----------------|
  1 & 2 & 3 & 4 &  1 & 2 & 3 & 4 &  1 & 2 & 3 & 4 &  1 & 2 & 3 & 4 &

G |-----------------|-----------------|-----------------|------------------|
D |-----------------|-----------------|-----------------|-7-------5---/(12)|
A |-----------------|-----------------|-----------------|------------------|
E |-1-------0-------|-0---------------|-1-------0-------|------------------|
  1 & 2 & 3 & 4 &  1 & 2 & 3 & 4 &  1 & 2 & 3 & 4 &  1 & 2 & 3 & 4 &

G |-----------------|
D |(12)---------r---|
A |-----------------|
E |-----------------|
  1 & 2 & 3 & 4 &


CHORUS 2:

G |-----------------|-----------------|-----------------|-----------------|
D |-----------------|-----------------|-----------------|-----------------|
A |-----------------|-----------------|-----------------|-----------------|
E |-1---1---1---1-0-|-5---5-7-8---8-\-|-1---1-1-1-0-1-0-|-3-----3-2---r---|
  1 & 2 & 3 & 4 &  1 & 2 & 3 & 4 &  1 & 2 & 3 & 4 &  1 & 2 & 3 & 4 &

G |-----------------|-----------------|-----------------|-----------------|
D |-----------------|-----------------|-----------------|-----------------|
A |-----------------|-5-----\-1-------|-3---------------|-3-----------3---|
E |-1---1---1---1-0-|-----------------|---------5-------|---------3-5---5-|
  1 & 2 & 3 & 4 &  1 & 2 & 3 & 4 &  1 & 2 & 3 & 4 &  1 & 2 & 3 & 4 &


BRIDGE:
                         a
G |-----------------|-----------------|-------------------|-----------------|
D |-----------------|-----------------|-------------------|-----------------|
A |--------/5-5-5-5-|-----------------|-3---------3h5---3-|-----------------|
E |-6-r-6-r---------|-3---------------|-------------------|-5---------------|
  1 & 2 & 3 & 4 &  1 & 2 & 3 & 4 &  1 & 2 & 3 &  4 &  1 & 2 & 3 & 4 &
                           a
G |-----------------|-----------------|-----------------|-----------------|
D |-----------------|-----------------|-----------------|-----------------|
A |--------/5-5-5-5-|-----------------|-3-------2----2/7|(7)------5-----/-|
E |-6-r-6-r---------|-3---r-3---------|-----------------|-----------------|
  1 & 2 & 3 & 4 &  1 & 2 & 3 & 4 &  1 & 2 & 3 & 4 &  1 & 2 & 3 & 4 &

G |-----------------|-----------------|
D |-----------------|-----------------|
A |-12------10----\-|-5---------------|
E |-----------------|-----------------|
  1 & 2 & 3 & 4 &  1 & 2 & 3 & 4 &


GUITAR SOLO:

G |-----------------|-----------------|-----------------|-----------------|
D |-----------------|-----------------|-----------------|-----------------|
A |-----------------|-----------------|-----------------|-----------------|
E |-1---1---1---1-0-|-5---5-/-8---8-\-|-1---1---1-1-1-0-|-3---3---2---2-0-|
  1 & 2 & 3 & 4 &  1 & 2 & 3 & 4 &  1 & 2 & 3 & 4 &  1 & 2 & 3 & 4 &

                       (x3)
G |-----------------|-----------------||-----------------|
D |-----------------|-----------------||-----------------|
A |-----------------|-5---\---1-------||-3---------------|
E |-1---1-1-1---1-/-|-----------------||---------5-------|
  1 & 2 & 3 & 4 &  1 & 2 & 3 & 4 &  1 & 2 & 3 & 4 &


CHORUS 3:

G |-----------------|-----------------|-----------------|-----------------|
D |-----------------|-----------------|-----------------|-----------------|
A |-----------------|-----------------|-----------------|-----------------|
E |-1---1-1-1---1-0-|-5---5-7-8---8-\-|-1---1---1-0-1-0-|-3---r-3-2---r-0-|
  1 & 2 & 3 & 4 &  1 & 2 & 3 & 4 &  1 & 2 & 3 & 4 &  1 & 2 & 3 & 4 &

G |-----------------|-----------------|-----------------|-----------------|
D |-----------------|-----------------|-----------------|-----------------|
A |-----------------|-5-----\-1-------|-3---------------|-3---------------|
E |-1---1-1-1---1---|-----------------|---------5---3---|-----------------|
  1 & 2 & 3 & 4 &  1 & 2 & 3 & 4 &  1 & 2 & 3 & 4 &  1 & 2 & 3 & 4 &


CHORUS 4:

G |-----------------|-----------------|-----------------|-----------------|
D |-----------------|-----------------|-----------------|-----------------|
A |-----------------|-----------------|-----------------|-----------------|
E |-1---1---1---1-0-|-5---5-7-8---8-\-|-1---1---1---1-0-|-3---r-3-2---r-0-|
  1 & 2 & 3 & 4 &  1 & 2 & 3 & 4 &  1 & 2 & 3 & 4 &  1 & 2 & 3 & 4 &

                       (x3)
G |-----------------|-----------------||-----------------||-----------------|
D |-----------------|-----------------||-----------------||-----------------|
A |-----------------|-5-----\-1-------||-3---------------||-3-----------5-7-|
E |-1---1-1-1---1---|-----------------||---------5---3---||---------5-------|
  1 & 2 & 3 & 4 &  1 & 2 & 3 & 4 &  1 & 2 & 3 & 4 &  1 & 2 & 3 & 4 &


OUTRO:

G |-----------------|-----------------|-----------------|-----------------|
D |-----------------|-----------------|-----------------|-----------------|
A |-8---8-7---------|-------------5-7-|-8---8-7-7-------|-7---7---7-8-7-5-|
E |---------3-------|-3---------------|-----------------|-----------------|
  1 & 2 & 3 & 4 &  1 & 2 & 3 & 4 &  1 & 2 & 3 & 4 &  1 & 2 & 3 & 4 &

  a                  (Let ring)
G |-------------------|-----------------|-----------------|
D |-------------------|-----------------|-----------------|
A |-7h8---8-7-7---7-/-|-12------10----\-|-5---------------|
E |-------------------|-----------------|-----------------|
   1 & 2 & 3 & 4 &  1 & 2 & 3 & 4 &  1 & 2 & 3 & 4 &

Follow along with the song:

Almost there ...

Sign in to get your own page with links to favourite songs and more. You are just one click away...

Login with Facebook Login with Google