Log in

One click and you are in

Login with Facebook Login with Google

Why sign up and log in

Guitar Tabs Explorer
Michael Penn tabs for Coal

Guitar tabs

Coal - Michael Penn, from the album Free For All
Transcribed by Mike Lewis (mclewis@ucdavis.edu)

Please send any corrections, comments, and any other Michael Penn tabs to
me! :-)

Capo 2
Intro: (Play four times)

 A chord diagramG+G                     C(9)  A chord diagramD MajorD
[---3-3-3---3-3--------------2---------]
[---3-3-3---3-3--------------3---------]
[---0-0-0---0-0--------0-0-0-2---------]
[---0-0-0---0-0-----0--2-2-2-0--0----0-]
[---------0-----0h2----3-3-3------2'---]
[-3------------------------------------]


Verse

A chord diagramG+G             A chord diagramC9C9      A chord diagramG+G  A chord diagramC9C9   A chord diagramG+G    A chord diagramD MajorD
Who'd've ...

      A chord diagramG+G                    A chord diagramC9C9 A chord diagramG+G      A chord diagramC9C9 A chord diagramG+G     A chord diagramD MajorD
If ..

       A chord diagramA7A7                 A chord diagramD7D7
I ..

A chord diagramC majorC      A chord diagramG+G        A chord diagramC majorC     A chord diagramG+G
Hangs ..

           A chord diagramA augmentedA    A chord diagramA/GA/G A/F# A chord diagramA/EA/E
There's ..

        C(9)
In ...

(Play intro twice)

Verse 2

.

(Play intro twice)

   A chord diagramG+G        A chord diagramA minorAm           A chord diagramE minorEm             A chord diagramC majorC A chord diagramCmaj7Cmaj7 A chord diagramG+G A chord diagramD MajorD
[----------------------------------------------------]
[-------------------------------------------------3--]
[--0--2--4--4b5b4--2--0--------0--2--4--4--b5--b4----]
[------------------------2-0-2-----------------------]
[----------------------------------------------------]
[----------------------------------------------------]

Hang on that A chord diagramD MajorD for a bit, then:

[-------------------]
[-------------------]
[-2-2-0-------------]
[-------4-2-0-------]
[-------------3-2-0-]
[-------------------]


Intro two more times, then the third verse:

3rd verse:


Intro twice, then repeat solo, ending on D.

Almost there ...

Sign in to get your own page with links to favourite songs and more. You are just one click away...

Login with Facebook Login with Google