Log in

One click and you are in

Login with Facebook Login with Google

Why sign up and log in

Guitar Tabs Explorer
Penfold guitar tabs for Ill take you everywhere

Guitar tabs

Tuning: Standard (E A D G B E)


Intro:
Alternate pick
e|-----10-------10--------10------10--------10---------10----7-----7-----7---7-----7-----|
B|--8--------8---------8------7----------7---------7-----------8-----8---------8-----8---|  {X12}
G|--------0---------0-----------------0---------0----------7-----7-----7---7-----7-------|
D|---------------------------------------------------------------------------------------|
A|---------------------------------------------------------------------------------------|
E|---------------------------------------------------------------------------------------|

After 8 and 12th time, play
Down strum
e|---------------------------|
B|---------------------------|
G|---9-9--7-7--9-9--7-7------|
D|---7-7--7-7--7-7--7-7------|
A|---------------------------|
E|---------------------------|


Verse:
Down strum
e|-------------------------------------|
B|-------------------------------------|
G|--9-------7-------12-------12--------|
D|--7-{x8}--5-{x8}--10-{x8}--9---{x8}--|
A|-------------------------------------|
E|-------------------------------------|

BACK TO INTRO: {x6}

After the 2nd and 6th time, play

Down strum
e|---------------------------|
B|---------------------------|
G|---9-9--7-7--9-9--7-7------|
D|---7-7--7-7--7-7--7-7------|
A|---------------------------|
E|---------------------------|

Build up:
Down pick
e|------------------------------------------------|
B|----8-8-8-8-7-7-7-7-{x13}---8---8---7---7-------|
G|------------------------------7---7---7---7-{x8}|
D|------------------------------------------------|
A|------------------------------------------------|
E|------------------------------------------------|

Loud part:
Strum up and down
e|--3-------5-------7----------------------|
B|--3-------5-------7----------------------|
G|--0-------0-------0-------9--------------|
D|--2-------4-------6-------9--------------| {x8}
A|--3--{x4}-5--{x4}-7--{x4}-7--{x4}--------|
E|-----------------------------------------|


Solo:
e|--------------------------------------15---15----15/17--17-15-|
B|--------13----13------15----15-12-13----13----13--------------|
G|--11-12----12---11-12----12-----------------------------------|
D|--------------------------------------------------------------|{x4}
A|--------------------------------------------------------------|
E|--------------------------------------------------------------|
(Vibrato on the last note the last tome you play it)


************************************

| /  Slide up


************************************

Other versions of Ill Take You Everywhere

Ill take you everywhereChords

Almost there ...

Sign in to get your own page with links to favourite songs and more. You are just one click away...

Login with Facebook Login with Google