Log in

One click and you are in

Login with Facebook Login with Google

Why sign up and log in

Guitar Tabs Explorer
Pencey Prep bass tabs for Florida plates

Bass tabs

Tuning: Drop D (D A D G)

Key: G

Difficulty: Novice
Intro:

G|------------------------------------|----------------------------------------|
D|------------------------------------|----------------------------------------|
A|------------------------------------|----------------------------------------|  x5
D|-5--5-5-5-5--5-5-5-5--5-5-5-5--4--0-|-2--2-2-2-2--0--0--2--2-2-2-2--0--2-----|


Verse 1:

G|------------------------------------|----------------------------------------|
D|------------------------------------|----------------------------------------|
A|------------------------------------|----------------------------------------|  x2
D|-5--5-5-5-5--5-5-5-5--5-5-5-5--4--0-|-2--2-2-2-2--0--0--2--2-2-2-2--0--2-----|

G|--------------------------|----------------------|
D|--------------------------|----------------------|
A|-------0--0--2--0---3-2-0-|-7--7-7-5-5-7-7-7-5-7-|
D|-5--5---------------------|----------------------|

G|------------------------------------|----------------------------------------|
D|------------------------------------|----------------------------------------|
A|------------------------------------|----------------------------------------|
D|-5--5-5-5-5--5-5-5-5--5-5-5-5--4--0-|-2--2-2-2-2--0--0--2--2-2-2-2--0--2-----|

Interlude:

G|------------------------------------|----------------------------------------|
D|------------------------------------|----------------------------------------|
A|------------------------------------|----------------------------------------|
D|-5--5-5-5-5--5-5-5-5--5-5-5-5--4--0-|-2--2-2-2-2--0--0--2--2-2-2-2--0--2-----|  x2

Verse 2:

G|------------------------------------|----------------------------------------|
D|------------------------------------|----------------------------------------|
A|------------------------------------|----------------------------------------|  x2
D|-5--5-5-5-5--5-5-5-5--5-5-5-5--4--0-|-2--2-2-2-2--0--0--2--2-2-2-2--0--2-----|


Chorus:

G|------------------------|-------------------------|
D|------------------------|-------------------------|
A|-5-5-5-5-5-5-5-5-5-5-7--|-3-3-3-3-3-3-3-----0-0-3-|  x2
D|-----------------------5|---------------5-5-------|


Chorus:

G|--------------------------------------|
D|--------------------------------------|
A|--------------------------------------|
D|-5--5-5-5-5-5--2-2--5--5-5-5-5-5--2-2-|

G|-----------------------------------------|
D|-----------------------------------------|
A|--------------------------------3--2--0--|
D|-5--5-5-5-5-5--2-2--5--5-5-5-5-----------|

Interlude 2:

G|------------------------------------|----------------------------------------|
D|------------------------------------|----------------------------------------|
A|------------------------------------|----------------------------------------|  x2
D|-5--5-5-5-5--5-5-5-5--5-5-5-5--4--0-|-2--2-2-2-2--0--0--2--2-2-2-2--0--2-----|


Verse 3:

G|------------------------------------|----------------------------------------|
D|------------------------------------|----------------------------------------|
A|------------------------------------|----------------------------------------|  x4
D|-5--5-5-5-5--5-5-5-5--5-5-5-5--4--0-|-2--2-2-2-2--0--0--2--2-2-2-2--0--2-----|


Chorus:

G|------------------------|-------------------------|
D|------------------------|-------------------------|
A|-5-5-5-5-5-5-5-5-5-5-7--|-3-3-3-3-3-3-3-----0-0-3-|  x2
D|-----------------------5|---------------5-5-------|


Bridge:

G|--------------------------------------|
D|--------------------------------------|
A|--------------------------------------|
D|-5--5-5-5-5-5--2-2--5--5-5-5-5-5--2-2-|

G|-----------------------------------------|
D|-----------------------------------------|
A|--------------------------------3--2--0--|
D|-5--5-5-5-5-5--2-2--5--5-5-5-5-----------|

G|------------------------------------|----------------------------------------|
D|------------------------------------|----------------------------------------|
A|------------------------------------|----------------------------------------|  x4
D|-5--5-5-5-5--5-5-5-5--5-5-5-5--4--0-|-2--2-2-2-2--0--0--2--2-2-2-2--0--2-----|


Verse 4:

Pause for one measure
G|---------------------------------------------------------------------------|
D|---------------------------------------------------------------------------|
A|------------7--7--7-------------7-7-7--------------------------------------|  x4
D|-2-2-2-2-2-----------2-2-2-2-2---------------------------------------------|

Interlude:

G|------------------------------------|----------------------------------------|
D|------------------------------------|----------------------------------------|
A|------------------------------------|----------------------------------------|  x2
D|-5--5-5-5-5--5-5-5-5--5-5-5-5--4--0-|-2--2-2-2-2--0--0--2--2-2-2-2--0--2-----|

G|------------------------------------|----------------------------------------|
D|------------------------------------|----------------------------------------|
A|------------------------------------|----------------------------------------|  x2
D|-5--5-5-5-5--5-5-5-5--5-5-5-5--5--5-|-2--2-2-2-2--2--2--2--2-2-2-2--2--2-----|

G|-------------------------------------------------7--------------|
D|----------------------------------------------7-----------------|
A|-5-5-5-5-5-5-5-5-5-5-5-0--5-5-5-5-5-5-5-5-5-5------------------ |  x8
D|----------------------------------------------------------------|

G|-------------------------|-----7-----7-----7-----7|
D|-------------------------|---7-----7-----7-----7--|
A|-5-5-5-5-5-5-5-5-5-5-5-5-|-5-----5-----5-----5----|
D|-------------------------|------------------------|

G|-----------------------------|
D|-----------------------------|
A|-----------------------------|  x4
D|-5--5-5-5-5-5----5--5-5-5-5-5|

G|-----------------------------|
D|-----------------------------|
A|-5-5-5-5-5-5-5-5-5-5-5-4-4---|  x4
D|-----------------------------|


Chorus:

G|------------------------|-------------------------|
D|------------------------|-------------------------|
A|-5-5-5-5-5-5-5-5-5-5-7--|-3-3-3-3-3-3-3-----0-0-3-|  x2
D|-----------------------5|---------------5-5-------|


Outro:
G|--------------------------------------|
D|--------------------------------------|
A|--------------------------------------|
D|-5--5-5-5-5-5--2-2--5--5-5-5-5-5--2-2-|

G|--------------------------------------|
D|--------------------------------------|
A|---------------------------------3-2-0|
D|-5--5-5-5-5-5--2-2--5--5-5-5-5--------|

Almost there ...

Sign in to get your own page with links to favourite songs and more. You are just one click away...

Login with Facebook Login with Google