Log in

One click and you are in

Login with Facebook Login with Google

Why sign up and log in

Guitar Tabs Explorer
Peerens Clement Explosition tabs for Vindegij mijn gat

Vindegij Mijn Gat tab - Peerens Clement Explosition

Peerens Clement Explosition tabs for Vindegij mijn gat

Guitar tabs

Album: Vindegij Mijn Gat
 
Tabbed by Kristof Smits
 

Note: o = bass (pedal open)
      + = treble (pedal closed)
     < >= natural harmonics 
 

Intro (w/talkbox): 
e---------------------------------------------------------------
B---------------------------------------------------------------
G-------7----------------9~-----------7-----------------9---9---
D--/7-----9-7------------9~-------7-----9-7-------------9---9---
A-----9-------9-7------7-----9p7----9-------9-7------7--7-7-7---
E-----------------10---0------------------------10---0--0-0-0---
                       o +   o                       o  + o +
 
e-----------------------------------------------------------------------
B-----------------------------------------------------------------------
G------7----------------9~-(9)-(9)-(9)-(9)------7------------------9~---
D--7-----9-7------------9~-(9)-(9)-(9)-(9)--7-----9-7--------------9~---
A----9-------9-7-----7------------------------9-------9-7------7--------
E----------------10--0------------------------------------10---0--------
                     o  + o + o + o + o +                      o   +
 

Verse:
e-------------------|------------------|------------------<7>---|
B--0----------------|--7---------------|--0---------------<7>---|
G--0----------------|--6---------------|--0---------------<7>---|
D--9----------------|--4-------2----2--|--9---------------------|
A--7-----2-5--2-5---|--0-----4-0--4-0--|--7-----2-5--2-5--------|
E--0-----0-3--0-3---|--------2----2----|--0-----0-3--0-3--------|
 

Chorus 1:
e----------------------------------------------
B----------------------------------------------
G------------4---------------------------------
D---5--------4----------------5-4--2-4---------
A---5--------2---2-5--2-5--2--3-2--0-2--5--4---
E---3------------0-3--0-3--0------------3--2---
 
e----------------------------------------------
B----------------------------------------------
G------------4--------7----------------9---9---
D---5--------4---/7-----9-7------------9---9---
A---5--------2------9-------9-7-----7--7-7-7---
E---3---------------------------10--0--0-0-0---
                                    o  + o +
 

Verse
 

Chorus 2:
e----------------------------------------------
B----------------------------------------------
G------------4---------------------------------
D---5--------4----------------5-4--2-4---------
A---5--------2---2-5--2-5--2--3-2--0-2--5--4---
E---3------------0-3--0-3--0------------3--2---
 
e----------------
B----------------
G------------4---
D---5--------4---
A---5--------2---
E---3------------
 

Bridge:
e------------------------------------------------------------------------------
B---------------------------------------------------------------------------15-
G--------------------14fb~~~-14p12-14---------------------------------------14^
D--9--------9--------------------------14-12~---12-14p12-----------------------
A--7-(x8)---9-(x8)---------------------------------------14~-12h14p12----14----
E--0--------7---------------------------------------------------------15-------
'Te dik, te dik...'
 
e--------------------------------------
B--------------------15----15----15----
G--------------------14^---14^---14^---
D--9--------9--------------------------
A--7-(x8)---9-(x8)---------------------
E--0--------7--------------------------
'Te dik, te dik...'
 

Chorus 1 (w/variations on all the above)
 

Outro:
e--------------------------------------------------------
B--------------------------------------------------------
G-----------------------7----------------9---9---9---9---
D--9--------9------/7-----9-7------------9---9---9---9---
A--7-(x8)---9-(x8)----9-------9-7-----7--7---7---7---7---
E--0--------7---------------------10--0--0---0---0---0---
'Te dik, te dik...'                   o  + o + o + o +
 

Almost there ...

Sign in to get your own page with links to favourite songs and more. You are just one click away...

Login with Facebook Login with Google