Log in

One click and you are in

Login with Facebook Login with Google

Why sign up and log in

Guitar Tabs Explorer
Peerens Clement Explosition bass tabs for Vindegij mijn gat

Vindegij Mijn Gat bass tab - Peerens Clement Explosition

Peerens Clement Explosition bass tabs for Vindegij mijn gat

Bass tabs

Album: Vindegij Mijn Gat
 
Tabbed by Kristof Smits
 

Intro:
G-------------
D------------- 4 times, listen to drum for timing
A-------------
E-0--0-0--0---
 

Verse:
        4 times                2 times                     Fill
G-----------------------|-----------------------|---------------------------|
D-----------------------|-----------------------|---------------------------|
A-----------------------|-----------------------|---------------------------|
E--0-0-0-0-0--0-3--0-3--|--2-2-2-2-2--2-5--2-5--|--0-0-0-0-0--0-3--0-3---0--|
 

Chorus 1:
G-----------------------------------------------
D-----------------------------------------------
A----------2-(x8)--------------3-2--0-2---------
E---3-(x8)--------0-3--0-3--0------------3--2---
 
G----------------------------------------
D----------------------------------------
A----------2-(x8)------------------------
E---3-(x8)--------0--0-0--0--0--0-0--0---
 

Verse
 

Chorus 2:
G-----------------------------------------------
D-----------------------------------------------
A----------2-(x8)--------------3-2--0-2---------
E---3-(x8)--------0-3--0-3--0------------3--2---
 
G-------------------
D-------------------
A----------2-(x8)---
E---3-(x8)----------
 

Bridge:
G----------------------------
D----------------------------
A---------2-(x8)---5-(x16)---
E--0-(x8)--------------------
'Te dik, te dik...'
 
G----------------------------
D----------------------------
A---------2-(x8)-------------
E--0-(x8)--------------------
'Te dik, te dik...'
 

Chorus 1
 

Chorus 2
 

Outro:
G---------------------7--------------------------------
D-----------------7-----9-7----------------------------
A---------2-(x8)----9-------9-7------------------------
E--0-(x8)-----------------------10--0--0---0---0---0---
 
 

Almost there ...

Sign in to get your own page with links to favourite songs and more. You are just one click away...

Login with Facebook Login with Google