Log in

One click and you are in

Login with Facebook Login with Google

Why sign up and log in

Guitar Tabs Explorer
Peerens Clement Explosition tabs for Dikke lu

Guitar tabs

Album: Vindegij Mijn Gat
 
Tabbed by Kristof Smits
 

Intro:
e---------------------------------
B---------------------------------
G--2------------4-----3-------2---
D--2------------4-----3-------2---
A--0------------2-----1--2p0--0---
E---------------------------------
'Are You ready for den Dikke Lu '
 
Fill (w/wah):
e--------------------------------------------------
B-------------------------5-8p5p0-8p5p0--12/13~~---
G----------5-7^-7p5---5h7--------------------------
D------5h7----------7------------------------------
A--5h7---------------------------------------------
E--------------------------------------------------
 

Main Riff (slight wa-wah):
                                                        Fill
e--------------------------------------------------|---------------------|
B--------------------------------------------------|---------------------|
G--------------------------------------------------|-7^--7p5-----7p5-----|
D--2-2---2-------2-------2-------2-2---2-------2---|---------7p5-----7p5-|
A--0-0-3-0-5-3~--0-5-3~--0-5-3~--0-0-3-0-5-3~--0---|---------------------|
E--------------------------------------------------|---------------------|
 

Verse:
      A5                       A chord diagramA5A5
'....Lu '             '....tedju!'
 

Main Riff
 
Fill (w/wah)
e-------------
B-------------
G--7^-7^-7^---
D-------------
A-------------
E-------------
 

Main Riff
 

Bridge 1:
e-------------
B-------------
G--2-3-4-5~---
D--2-3-4-5~--- feedback
A--0-1-2-3~---
E-------------
 
Bass takes over.
 
End:
A chord diagramE5E5 A chord diagramE5E5 A chord diagramE5E5 A chord diagramE5E5 A chord diagramE5E5 A chord diagramE5E5 (all palm muted)
 

Main Riff
 
Fill (w/wah)
e----------
B----------
G--/5-7^---
D----------
A----------
E----------
 

Main Riff
 

Solo (w/wah, slight palm muting):
e---------------------------------
B---------------------------------
G------5---7-5~----7-5~----7-5~---
D--7-7---7-------7-------7--------
A---------------------------------
E---------------------------------
 

Bridge 2 (slow):
Guitar 1
e--------------------------------------------------------------------
B--------------------------------------------------------------------
G----------------------------------------------------------------2---
D--------7------------5------------3------------2----------------2---
A-----7-----7------5-----5------3-----3------2-----2--5--4-3-2---0---
E--5------------3------------1------------0-----------3--2-1-0-------
 
Guitar 2: same as solo
 

Main Riff + variations on all the above
 
End on A5.
 
 

Almost there ...

Sign in to get your own page with links to favourite songs and more. You are just one click away...

Login with Facebook Login with Google