Log in

One click and you are in

Login with Facebook Login with Google

Why sign up and log in

Guitar Tabs Explorer
Peerens Clement Explosition bass tabs for Dikke lu

Dikke Lu bass tab - Peerens Clement Explosition

Peerens Clement Explosition bass tabs for Dikke lu

Bass tabs

Album: Vindegij Mijn Gat
 
Tabbed by Kristof Smits
 

Intro:
G---------------------------------
D---------------------------------
A---------------2-----1--2p0--0---
E--5\-----------------------------
'Are You ready for den Dikke Lu '
 

Main Riff:
G----------------------------------------------
D----------------------------------------------
A--0-0-3-0-5-3--0-5-3--0-5-3--0-0-3-0-5-3--0---
E----------------------------------------------
 

Verse:
      A                        A
'....Lu '             '....tedju!'
 

Main Riff
 
Guitar Fill
 

Main Riff
 

Bridge 1:
G------------
D------------
A--0-1-2-3---
E------------
 
        2 times                    2 times                 2
times        
G-------------------------|------------------------|-------------------------|
D-------------------2-0---|------------------2-0---|-------------------------|
A--3-3-1-0--3-3-3-1-----3-|-5-5-3-1--5-5-5-3-----3-|-7-7-5-3--7-7-7-5-10-9-7-|
E-------------------------|------------------------|-------------------------|
 
End:
G----------------
D----------------
A----------------
E--0-0-0-0-0-0---
'Hoe vàr ging da gemeuz '
 

Main Riff
 
Guitar Fill
 

Main Riff
 
Guitar Solo
 

Bridge 2 (let ring):
G--------------------------------------------------------------------
D--------------------------------------------------------------------
A----------------------------------------------------------------0---
E--5------------3------------1------------0-----------3--2-1-0-------
 

Main Riff + variations on all the above
 
End on A.
 

Almost there ...

Sign in to get your own page with links to favourite songs and more. You are just one click away...

Login with Facebook Login with Google