Log in

One click and you are in

Login with Facebook Login with Google

Why sign up and log in

Guitar Tabs Explorer
Peerens Clement Explosition tabs for Boecht van dunaldy

Boecht Van Dunaldy tab - Peerens Clement Explosition

Peerens Clement Explosition tabs for Boecht van dunaldy

Guitar tabs

Album: Vindegij Mijn Gat
 
Tabbed by Kristof Smits
 

Intro:
   Am            C        D 
e-----------------------------------
B------1-----1--------1-------3-----
G--------2--------------0---2---2---
D----2-----2----2---2-----0---------
A--0--------------3-----------------
E-----------------------------------
 

Verse:
Guitar 1
e------------------------------------
B------------------------------3-----
G------2-------2-------0---2-2-2-2---
D--2-2-2-2-2-2-2-2-2-2-2-2-0-0-0-0---
A--0-0-0-0-0-0-0-0-3-3-3-3-----------
E------------------------------------
PM . .   . . .   . . .   . . .   .
 
Guitar 2
Parts of intro (listen to song for timing)
 

Pre-Chorus:
   Em    Am    C     G     Em    Am    D     Em  
e--0-----0-----------3-----0-----0-----2-----0---
B--0-----1-----1-----0-----0-----1-----3-----0---
G--0-----2-----0-----0-----0-----2-----2-----0---
D--2-----2-----2-----0-----2-----2-----0-----2---
A--2-----0-----3-----2-----2-----0-----------2---
E--0-----------------3-----0-----------------0---
 

Chorus:
   Am    D     C     D     Am    D     D     C 
e--------2-----------2-----------2-----2---------
B--1-----3-----1-----3-----1-----3-----3-----1---
G--2-----2-----0-----2-----2-----2-----2-----0---
D--2-----0-----2-----0-----2-----0-----0-----2---
A--0-----------3-----------0-----------------3---
E------------------------------------------------
''t was boecht van Dunaldy'
 

Intro (w/rhythm guitar from verse)
 

Verse
 

Pre-Chorus
 

Chorus
 

Verse
 

Pre-Chorus
 

Chorus x2
 
End on C.
 
 

Almost there ...

Sign in to get your own page with links to favourite songs and more. You are just one click away...

Login with Facebook Login with Google