Log in

One click and you are in

Login with Facebook Login with Google

Why sign up and log in

Guitar Tabs Explorer
Peerens Clement Explosition bass tabs for Boecht van dunaldy

Boecht Van Dunaldy bass tab - Peerens Clement Explosition

Peerens Clement Explosition bass tabs for Boecht van dunaldy

Bass tabs

Album: Vindegij Mijn Gat
 
Tabbed by Kristof Smits
 

Intro (Guitar)
 

Verse:
G------------------------------------
D------------------------------------
A--0-0-0-0-0-0-0-0-3-3-3-3-5-5-5-5---
E------------------------------------
 

Pre-Chorus (each note hit 8 times):
G------------------------------------------------
D------------------------------------------------
A--------0-----3-----------------0-----5---------
E--0-----------------3-----0-----------------0---
 

Chorus (each note hit 8 times):
G------------------------------------------------
D------------------------------------------------
A--0-----5-----3-----5-----0-----5-----5-----3---
E------------------------------------------------
 

Verse
 

Pre-Chorus
 

Chorus
 

Verse (w/variations)
 

Pre-Chorus
 

Chorus x2

Almost there ...

Sign in to get your own page with links to favourite songs and more. You are just one click away...

Login with Facebook Login with Google