Log in

One click and you are in

Login with Facebook Login with Google

Why sign up and log in

Guitar Tabs Explorer
The Pedro tabs for Simple economics

Guitar tabs

Title: Simple Economics
Album: Winners Never Quit

Standard Tuning

Intro/Verse

------------------------------------------------------------------------
------------------------------------------------------------------------
------------------------------------------------------------------------
---------------------------------------------------------------------5--
-8-8-8-8-8-8-8-8-7-7-7-7-7-7-7-7-5-5-5-5-5-5-5-5-5-5-5-3-3-3-3-2-2-2---2
------------------------------------------------------------------------


------------------------------------------------------------------------
------------------------------------------------------------------------
------------------------------------------------------------------------
----------------------------5-------------------------------------------
-2-2--2-2-2-2-3-3-3-3-2-2-2---2-2-2-2-2-2-------------------------------
------------------------------------------------------------------------


First Pre-Chorus

------------------------------------------------------------------------
------------------------------------------------------------------------
------------------------------------------------------------------------
-------5---------------5---------------5---------------5----------------
-3-3-3---3-3-3-3-3-3-3---3-3-3-3-2-2-2---2-2-2-2-2-2-2---2-2-2-2-2-2-2--
------------------------------------------------------------------------

------------------------------------------------------------------------
------------------------------------------------------------------------
------------------------------------------------------------------------
-------5---------------5---------------5-------4-------2-------------5--
-3-3-3---3-3-3-3-3-3-3---3-3-3-3-3-2-2---2-2-2---2-2-2---2-2-2-3-3-3---3
------------------------------------------------------------------------

------------------------------------------------------------------------
------------------------------------------------------------------------
-------------------------0-----------0-----0-----0-----0-----0----------
-----------5-----------0---0---0---0---0-------0---0-----0-----0--------
-3-3-3-3-3---3-3-3-3-5-------5---7-------7---9-------9-----9-----9------
------------------------------------------------------------------------


Second Pre-Chorus


------------------------------------------------------------------------
------------------------------------------------------------------------
------------------------------------------------------------------------
-------5---------------5---------------5-----------------5--------------
-3-3-3---3-3-3-3-3-3-3---3-3-3-3-2-2-2---2-2-2-2-2-2-2-2---2-2-2-2-2-2-2
------------------------------------------------------------------------


------------------------------------------------------------------------
------------------------------------------------------------------------
------------------------------------------------------------------------
-------5---------------5-----------------5-------4-------2--------------
-3-3-3---3-3-3-3-3-3-3---3-3-3-3-3-2-2-2---2-2-2---2-2-2---2-2-2-2-2-2--
------------------------------------------------------------------------


------------------------------------------------------------------------
------------------------------------------------------------------------
--------------------------------------0------------------0--------------
-------5---------------5------------0---0---0----------0---0----0-------
-3-3-3---3-3-3-3-3-3-3---3-3-3-3-10-------10--10-10-12-------12---12-12-
------------------------------------------------------------------------


------------------------------------------------------------------------
------------------------------------------------------------------------
---------0-------------------0------------------------------------------
-------0---0----0----------0---0----0-----------------------------------
-12-14-------14---14-14-15-------15---15--15-15-------------------------
------------------------------------------------------------------------


Chorus


A chord diagramG+G         A chord diagramD MajorD          A chord diagramE minorEm  A chord diagramB minorBm   A chord diagramC majorC        A chord diagramG+G         A chord diagramD MajorD         A chord diagramE minorEm   A chord diagramB minorBm   A chord diagramA minorAm

-3-3--3-3--2-2--2-2--0-0--2-2-----------3-3--3-3--2-2--2-2--0-0--2-2--00
-3-3--3-3--3-3--3-3--0-0--3-3--5-5-5-5--3-3--3-3--3-3--3-3--0-0--3-3--11
-0-0--0-0--2-2--2-2--0-0--4-4--5-5-5-5--0-0--0-0--2-2--2-2--0-0--4-4--22
-0-0--0-0--0-0--0-0--2-2--4-4--5-5-5-5--0-0--0-0--0-0--0-0--2-2--4-4--22
-2-2--2-2------------2-2--2-2--3-3-3-3--2-2--2-2------------2-2--2-2--00
-3-3--3-3------------0-0----------------3-3--3-3------------0-0---------


A chord diagramCmaj7Cmaj7

-0-0-0-0----------------------------------------------------------------
-0-0-0-0----------------------------------------------------------------
-0-0-0-0----------------------------------------------------------------
-2-2-2-2----------------------------------------------------------------
-3-3-3-3----------------------------------------------------------------
------------------------------------------------------------------------


Add a few more or less notes in there, and listen to the album for the
rhythm and you've got it.


Questions, comments:scott_houle@hotmail.com

Almost there ...

Sign in to get your own page with links to favourite songs and more. You are just one click away...

Login with Facebook Login with Google