Search tabs and chords

Search for song, artist or band

Log in

One click and you are in

Login with Facebook Login with Google

Why sign up and log in

Guitar Tabs Explorer
The Pedro guitar tabs for I am always the one who calls

Guitar tabs with lyrics

Title: I Am chord diagramAmAm Alway The One Who Calls
Album: The Only Reason I Feel Secure (Is That I Am chord diagramAmAm Validated By My Peers)


Standard Tuning
Intro/Riff #1


A chord diagramAA#add9 A# chord diagramA#A#          A chord diagramAA#add9 A# chord diagramA#A#         D chord diagramDD     Dadd9 chord diagramDadd9Dadd9      D chord diagramDD     Dadd9 chord diagramDadd9Dadd9

------------------------------------------------------------------------
-------------------------------------3-3-3-3-3-3-3-3--3-3-3-3-3-3-3-3---
-3-3-3-3-3-3-3-3-3--3-3-3-3-3-3-3-3--2-2-2-4-4-4-4-4--2-2-2-4-4-4-4-4---
-5-5-5-3-3-3-3-3-3--5-5-5-3-3-3-3-3--0-0-0-0-0-0-0-0--0-0-0-0-0-0-0-0---
-1-1-1-1-1-1-1-1-1--1-1-1-1-1-1-1-1-------------------------------------
------------------------------------------------------------------------


A chord diagramAA#add9 A# chord diagramA#A#        A chord diagramAA#add9 A# chord diagramA#A#

------------------------------------------------------------------------
------------------------------------------------------------------------
-3-3-3-3-3-3-3-3--3-3-3-3-3-3-3-3---------------------------------------
-5-5-5-3-3-3-3-3--5-5-5-3-3-3-3-3---------------------------------------
-1-1-1-1-1-1-1-1--1-1-1-1-1-1-1-1---------------------------------------
------------------------------------------------------------------------


Verse - play this the second time, after the bass


  B chord diagramBB  C# chord diagramC#C# D# chord diagramD#D# E chord diagramEE  D# chord diagramD#D# C# chord diagramC#C# B chord diagramBB C# chord diagramC#C#  D# chord diagramD#D# E chord diagramEE  F# chord diagramF#F#  G# chord diagramG#G#  F# chord diagramF#F#  E chord diagramEE  C# chord diagramC#C# B chord diagramBB

------------------------------------------------------------------------
------------------------------------------------------------------------
--4--6--8--9--8--6--4--6--8--9--11--13--11--9--6--4---------------------
------------------------------------------------------------------------
--2--4--6--7--6--4--2--4--6--7--9---11--9---7--4--2---------------------
------------------------------------------------------------------------

Pre-Chorus


  C chord diagramCC                A# chord diagramA#A#               D chord diagramDD                           F chord diagramFF

  pm-----------------------------------------------------------------
------------------------------------------------------------------------
------------------------------------------------------------------------
--5-5-5-5-5-5-5-5--3-3-3-3-3-3-3-3--7-7-7-7-7-7-7-7-7-7-7-7-7-7/10-10---
--5-5-5-5-5-5-5-5--3-3-3-3-3-3-3-3--7-7-7-7-7-7-7-7-7-7-7-7-7-7/10-10---
--3-3-3-3-3-3-3-3--1-1-1-1-1-1-1-1--5-5-5-5-5-5-5-5-5-5-5-5-5-5/8--8----
------------------------------------------------------------------------


  C chord diagramCC                A# chord diagramA#A#               D chord diagramDD                 Dm chord diagramDmDm

  pm--------------------------------------------------
------------------------------------------------------5-5-5-5-5-5-5-----
--5-5-5-5-5-5-5-5--3-3-3-3-3-3-3-3--------------------6-6-6-6-6-6-6-----
--5-5-5-5-5-5-5-5--3-3-3-3-3-3-3-3--7-7-7-7-7-7-7-7-7-7-7-7-7-7-7-7-----
--5-5-5-5-5-5-5-5--3-3-3-3-3-3-3-3--7-7-7-7-7-7-7-7-7-7-7-7-7-7-7-7-----
--3-3-3-3-3-3-3-3--1-1-1-1-1-1-1-1--5-5-5-5-5-5-5-5-5-5-5-5-5-5-5-5-----
------------------------------------------------------------------------


Chorus

  C chord diagramCC                A# chord diagramA#A#               Dm chord diagramDmDm               F chord diagramFF

------------------------------------5-5-5-5-5-5-5-5--1-1-1-1-1-1-1-1----
--5-5-5-5-5-5-5-5--3-3-3-3-3-3-3-3--6-6-6-6-6-6-6-6--1-1-1-1-1-1-1-1----
--5-5-5-5-5-5-5-5--3-3-3-3-3-3-3-3--7-7-7-7-7-7-7-7--2-2-2-2-2-2-2-2----
--5-5-5-5-5-5-5-5--3-3-3-3-3-3-3-3--7-7-7-7-7-7-7-7--3-3-3-3-3-3-3-3----
--3-3-3-3-3-3-3-3--1-1-1-1-1-1-1-1--5-5-5-5-5-5-5-5--3-3-3-3-3-3-3-3----
-----------------------------------------------------1-1-1-1-1-1-1-1----



Bridge - The same Progression as the chorus in a higher key (I never
         bothered to check this to the album, but it sounds right, but
         please listen to the album to get the correct key)

  D chord diagramDD                 C chord diagramCC               Em chord diagramEmEm               G chord diagramGG

------------------------------------7-7-7-7-7-7-7-7--3-3-3-3-3-3-3-3----
--7-7-7-7-7-7-7-7-7-5-5-5-5-5-5-5-5-8-8-8-8-8-8-8-8--3-3-3-3-3-3-3-3----
--7-7-7-7-7-7-7-7-7-5-5-5-5-5-5-5-5-9-9-9-9-9-9-9-9--4-4-4-4-4-4-4-4----
--7-7-7-7-7-7-7-7-7-5-5-5-5-5-5-5-5-9-9-9-9-9-9-9-9--5-5-5-5-5-5-5-5----
--5-5-5-5-5-5-5-5-5-3-3-3-3-3-3-3-3-7-7-7-7-7-7-7-7--5-5-5-5-5-5-5-5----
-----------------------------------------------------3-3-3-3-3-3-3-3----


Fill Under the Outro (under chorus chords, rhythm not correctly tabbed)

D chord diagramDD     E chord diagramEE     F# chord diagramF#F#       E chord diagramEE

------------------------------------------------------------------------
------------------------------------------------------------------------
-7-7-7/9-9-9/111111-/14-------------------------------------------------
------------------------------------------------------------------------
-5-5-5/7-7-7/9-9-9--/12-------------------------------------------------
------------------------------------------------------------------------


End

G chord diagramGG              A# chord diagramA#A#

-3-3-3-3-3-3----6-------------------------------------------------------
-3-3-3-3-3-3----6-------------------------------------------------------
-4-4-4-4-4-4----7-------------------------------------------------------
-5-5-5-5-5-5----8-------------------------------------------------------
-5-5-5-5-5-5----8-------------------------------------------------------
-3-3-3-3-3-3----6-------------------------------------------------------


  Listen to the song for rhythm and structure of the song. All of the
chordslabeled A# chord diagramA#A# are more commonly called B chord diagramBB flat, but a standard computer
keyboard doesn't have the flat notation character.


Questions, comments: scott_houle@hotmail.com

Almost there ...

Sign in to get your own page with links to favourite songs and more. You are just one click away...

Login with Facebook Login with Google