Log in

One click and you are in

Login with Facebook Login with Google

Why sign up and log in

Guitar Tabs Explorer
The Pedro tabs for Bad things to such good people

Guitar tabs with lyrics

There's another one of this song already up, but I have quite a few additions to the
verses and chorus and I did the bridge completely differently.  It's still a little
shaky, but I think it's at least close.  Here you go.  Email me if you've got
suggestions: gravis127@hotmail.com.  And I'm tabbing this from the version on Winner
Never Quit, I don't know if there's another different version out there, I've seen
some weird tabs for this song.

----------------------------------------------------

Capo 3

***NOTE*** when you see a number followed by a "T" it means to play that number fret
with your thumb (kinda tricky).
Intro:

    A chord diagramA minorAm            A chord diagramC majorC
e---0-0-0-0-0-0---0-0-0-0--0-0-0-0-0-0-0-
B---1-1-1-1-1-1---1-1-1-1--1-1-1-1-1-1-1-
G---2-2-2-2-2-2---0-0-0-0--0-0-0-0-0-0-0- (2x)
D---2-0-0-2-0-2---2-2-2-2--2-0-2-0-2-2-2-
A-0-0-0-0-0-0-0---3-3-3-3--3-3-3-3-3-3-3-
E----------------------------------------
(Listen to it for the exact rhythm to these parts, it's difficult to transcribe here.)

    A chord diagramFF               A chord diagramDmDm
e---1-1-1-1-1-1-----1-1-1-1-1-
B---1-1-1-1-1-1-----3-3-3-3-3-
G---2-0-0-2-0-2-----2-0-0-0-0-(1x)
D---3-3-3-3-3-2---0-0-0-0-0-0-
A---3-3-3-3-3-0---------------
E-1T1T1T1T1T1T1T--------------

    A chord diagramA minorAm            A chord diagramC majorC
e---0-0-0-0-0-0---0-0-0-0--0-0-0-0-0-0-0-
B---1-1-1-1-1-1---1-1-1-1--1-1-1-1-1-1-1-
G---2-2-2-2-2-2---0-0-0-0--0-0-0-0-0-0-0- (1x)
D---2-0-0-2-0-2---2-2-2-2--2-0-2-0-2-2-2-
A-0-0-0-0-0-0-0---3-3-3-3--3-3-3-3-3-3-3-
E----------------------------------------

Verse 1:

A chord diagramA minorAm            A chord diagramC majorC
My jail shoes on
A chord diagramA minorAm            A chord diagramC majorC
The well kept cemetery lawn
A chord diagramFF            A chord diagramDmDm
Both of them weeping
A chord diagramFF         A chord diagramDmDm
There one good son now was gone

    A chord diagramA minorAm            A chord diagramC majorC
e---0-0-0-0-0-0---0-0-0-0--0-0-0-0-0-0-0-
B---1-1-1-1-1-1---1-1-1-1--1-1-1-1-1-1-1-
G---2-2-2-2-2-2---0-0-0-0--0-0-0-0-0-0-0- (2x)
D---2-0-0-2-0-2---2-2-2-2--2-0-2-0-2-2-2-
A-0-0-0-0-0-0-0---3-3-3-3--3-3-3-3-3-3-3-
E----------------------------------------

    A chord diagramA minorAm
e---0-0-0-0-0-0-
B---1-1-1-1-1-1-
G---2-2-2-2-2-2-
D---2-0-0-2-0-2-
A-0-0-0-0-0-0-0-
E---------------    A chord diagramC majorC
 The Iron...........y

A chord diagramA minorAm            A chord diagramC majorC
To see my dad down on his knees

    A chord diagramFF               A chord diagramDmDm
e---1-1-1-1-1-1-----1-1-1-1-1-
B---1-1-1-1-1-1-----3-3-3-3-3-
G---2-0-0-2-0-2-----2-0-0-0-0-
D---3-3-3-3-3-2---0-0-0-0-0-0-
A---3-3-3-3-3-0---------------
E-1T1T1T1T1T1T1T--------------
    Crying out to   Jesus

    A chord diagramFF               A chord diagramDmDm
e---1-1-1-1-1-1-----1-1-1-1-1-
B---1-1-1-1-1-1-----3-3-3-3-3-
G---2-0-0-2-0-2-----2-0-0-0-0-
D---3-3-3-3-3-2---0-0-0-0-0-0-
A---3-3-3-3-3-0---------------
E-1T1T1T1T1T1T1T--------------
    But Lord I've   Always done whats right

    A chord diagramA minorAm
e---0-0-0-0-0-0-0-
B---1-1-1-1-1-1-1-
G---2-0-0-2-2-2-2-
D---2-0-0-2-2-2-2-
A-0-0-0-0-0-0-0-0-
E-----------------


Chorus:

    A chord diagramDmDm      A chord diagramC majorC               A chord diagramG+G
e---1-1-1---0-0-0-----------3-3-3-3-
B---3-3-3---1-1-1---0-0-0---0-0-0-0-
G---2-2-2---0-0-0---0-0-0-0-0-0-0-0-
D-0-0-0-0---2-2-2---0-0-0-0-0-0-0-0-
A---------3-3-3-3-2-2-2-2-0-2-2-2-2-
E---------------------------3-3-3-3-
And all   the     while

    A chord diagramC majorC             A chord diagramFF
e---0-0-0---------1-1-1-1-1-1-1-
B---1-1-1---0-0-0-1-1-1-1-1-1-1-
G---0-0-0---0-0-0-2-2-0-0-2-2-2-
D---2-2-2---0-0-0-3-3-3-3-3-3-3-
A---3-3-3-2-2-2-2-3-3-3-3-3-3-3-
E-----------------1T1T1T1T1T1T1T
The good  Lord    smiled

    A chord diagramDmDm         A chord diagramG+G     A chord diagramFF
e---1-1-1------3-3-3-1-1-1-1-1-1-1-1-
B---3-3-3------0-0-0-1-1-1-1-1-1-1-1-
G---2-2-2------0-0-0-2-2-0-2-0-2-2-2-
D---0-0-0------0-0-0-3-3-3-3-3-3-3-3-
A--------------2-2-2-3-3-3-3-3-3-3-3-
E--------------3-3-3-1T1T1T1T1T1T1T1T
And looked the other way

    A chord diagramDmDm         A chord diagramG+G
e---1-1-1------3-3-3-
B---3-3-3------0-0-0-
G---2-2-2------0-0-0-
D---0-0-0------0-0-0-
A--------------2-2-2-
E--------------3-3-3-
And looked the other

  A chord diagramA minorAm            A chord diagramC majorC
e-0-0-0-0-0-0---0-0-0-0--0-0-0-0-0-0-0-
B-1-1-1-1-1-1---1-1-1-1--1-1-1-1-1-1-1-
G-2-2-2-2-2-2---0-0-0-0--0-0-0-0-0-0-0- (2x)
D-2-0-0-2-0-2---2-2-2-2--2-0-2-0-2-2-2-
A-0-0-0-0-0-0---3-3-3-3--3-3-3-3-3-3-3-
E---------------------------------------
  Way

    A chord diagramFF               A chord diagramDmDm
e---1-1-1-1-1-1-----1-1-1-1-1-
B---1-1-1-1-1-1-----3-3-3-3-3-
G---2-0-0-2-0-2-----2-0-0-0-0-(1x)
D---3-3-3-3-3-2---0-0-0-0-0-0-
A---3-3-3-3-3-0---------------
E-1T1T1T1T1T1T1T--------------


Verse 2:
A chord diagramA minorAm           A chord diagramC majorC
When we were kids
A chord diagramA minorAm       A chord diagramC majorC
I did my best to make them proud

    A chord diagramFF               A chord diagramDmDm
e---1-1-1-1-1-1-----1-1-1-1-1-
B---1-1-1-1-1-1-----3-3-3-3-3-
G---2-0-0-2-0-2-----2-0-0-0-0-
D---3-3-3-3-3-2---0-0-0-0-0-0-
A---3-3-3-3-3-0---------------
E-1T1T1T1T1T1T1T--------------
    It just wasn't  in me

    A chord diagramFF               A chord diagramDmDm
e---1-1-1-1-1-1------1-1-1-1-1-
B---1-1-1-1-1-1------3-3-3-3-3-
G---2-0-0-2-0-2------2-0-0-0-0-
D---3-3-3-3-3-2----0-0-0-0-0-0-
A---3-3-3-3-3-0---------------
E-1T1T1T1T1T1T1T--------------           A chord diagramA minorAm
    I could not fly  straight to save my life


[Chorus]

    A chord diagramA minorAm
e---0-0-0-0-0-0-0--0-0-0-0-0-0-0-
B---1-1-1-1-1-1-1--1-1-1-1-1-1-1-
G---2-2-0-2-0-2-2--2-2-0-2-0-2-2-
D---2-2-2-2-2-2-2--2-2-2-2-2-2-2-
A-0-0-0-0-0-0-0-0--0-0-0-0-0-0-0-
E--------------------------------


Bridge:


e---8-0-0-0-0-0-0-0-0-0-0-0-0-
B---0-0-0-0-0-0-0-0-0-0-0-0-0-
G---5-4-2-5-4-2-5-4-2-2-2-1-1-
D---7-----5-5-5-4-4-4-3-3-2-2-(4X)
A---0-----------------------X-
E---------------------------0-
    Their big success is now their biggest failure
    Their golden child has been dethroned
    Their reputation is now in ruins
    Their tower to heaven has come tumbling down

    A chord diagramA minorAm
e---0-0-0-0-0-0-0-
B---1-1-1-1-1-1-1-
G---2-2-2-2-2-2-2-
D---2-2-2-2-2-2-2-
A-0-0-0-0-0-0-0-0-
E-----------------


[Chorus]


Outro:

    A chord diagramA minorAm            A chord diagramC majorC
e---0-0-0-0-0-0---0-0-0-0--0-0-0-0-0-0-0-
B---1-1-1-1-1-1---1-1-1-1--1-1-1-1-1-1-1-
G---2-2-2-2-2-2---0-0-0-0--0-0-0-0-0-0-0- (2x)
D---2-0-0-2-0-2---2-2-2-2--2-0-2-0-2-2-2-
A-0-0-0-0-0-0-0---3-3-3-3--3-3-3-3-3-3-3-
E----------------------------------------

    A chord diagramFF            A chord diagramE MajorE
e---1-1-1-1-1-1--0-0-0-0-0-0-0-0-0-0-0-0-0-0-0-
B---1-1-1-1-1-1--0-0-0-0-0-0-0-0-0-0-0-0-0-0-0-
G---2-0-0-2-0-2--1-1-1-1-1-1-1-1-1-1-1-1-1-1-1-(1x)
D---3-3-3-3-3-2--2-2-2-2-2-2-2-2-2-2-2-2-2-2-2-
A---3-3-3-3-3-0--2-2-0-0-2-2-0-0-2-0-2-0-2-0-2-
E-1T1T1T1T1T1T1T-0-0-0-0-0-0-0-0-0-0-0-0-0-0-0-

........and end on A chord diagramA augmentedA minor.....and thats it.

Not a very tough song, but sounds really cool if you play it just right.  On the

bridge, I'm pretty sure about the E, A, D, and A chord diagramG+G strings, but the A chord diagramBB and the e are
pretty questionable.  It sounds at least similar.  I'm open to comments:
gravis127@hotmail.com

Other versions of Bad Things To Such Good People

Bad things to such good peopleChords

Almost there ...

Sign in to get your own page with links to favourite songs and more. You are just one click away...

Login with Facebook Login with Google