Log in

One click and you are in

Login with Facebook Login with Google

Why sign up and log in

Guitar Tabs Explorer
Pearl Jam tabs for Last kiss (Ver. 2)

Guitar tabs with lyrics

Title: last kiss
Album: compilation No boundaries

A chord diagramA augmentedA good and an easy song. Real fun to transcribe.
 I hope you'll have fun playing it to your girlfriend or
a cute woman!!!!

----|----------3----------|--------0---------|--------------------------------
----|-------3-------3---0-|------0------0--0-|----------------------1p0-------
----|-----0---------------|----0-------------|----------0---------------------
----|---0-----------------|--2---------------|--------2-----------------------
----|---------------------|------------------|-3------------------------------
----|-3-------------------|0-----------------|--------------------------------
 oh   where oh where can my  ba---by be          the lord took her      a-

----|-----------2--0------|--------------3--------------|------------0--------
----|-------------------3-|------------------------3--0-|---------0-----0-0---
----|------2--------------|------------------------0----|-------0-------------
----|-0-------------------|-----------------------------|-----2---------------
----|---------------------|-----------------------------|---------------------
----|---------------------|-3---------------------------|--0------------------
     way   from me            she's gone to heaven so I   got to  be good so

----|--------------------------|------2---------|-3----3----------------------
----|-----------1----1---------|------3---3-----|-3----3----------------------
----|----0------0----0---------|----2--------0--|-0----0----------------------
----|--------2--2----2---------|-0--------------|-0----0----------------------
----|-3------------------------|----------------|-x----x----------------------
----|--------------------------|----------------|-3----3----------------------
      I can see my baby when I   leave    this    world

--------|------------3--------|------------------|----------------------------
--------|--------3-----3------|------0-----0-----|----------------------------
--------|--------0-------0----|------0---------0-|---------0---0--------------
--------|---------------------|------------------|-----------2---2p0----------
--------|---------------------|------------------|-3--------------------------
--------|-3-------------------|-0----------------|----------------------------
 We were  out on a date in my     daddy's car        we hadn't driven

-|-----3-2---0---|------------------------------------------------------------
-|---------3---3-|------------------------------------------------------------
-|-2-------------|------------------------------------------------------------
-|-0-------------|------------------------------------------------------------
-|---------------|------------------------------------------------------------
-|---------------|------------------------------------------------------------
   very far      End of riff 1  .Play the same thing until the chorus.

------------------------------------------------------------------------------
------------------------------------------------------------------------------
------------------------------------------------------------------------------
------------------------------------------------------------------------------
------------------------------------------------------------------------------
------------------------------------------------------------------------------
 verse two. guitar one plays riff 1     guitar two do the same  ( G-Em-C-D)

------------------------------------------------------------------------------
------------------------------------------------------------------------------
------------------------------------------------------------------------------
------------------------------------------------------------------------------
------------------------------------------------------------------------------
------------------------------------------------------------------------------
 except it's one octave higher.                               here it goes:

------|--------15------------------|---------12----------------|--------------
------|------15------15------------|-------12-------12---------|--------------
------|----16-------------16-------|-----12------------12------|--------------
------|------------------------17--|----------------------12---|--------------
------|----------------------------|---------------------------|--------------
------|----------------------------|---------------------------|--------------
 when   I     woke up the rain was     pouring down

--|----------------------------|-------------------------|--------------------
--|------------13--------------|-------------15----------|--------------------
--|--------12-----12-----------|------------------14-----|--------------------
--|-------------------14-------|---------16----------16--|--------------------
--|-15-------------------------|--15/17------------------|--------------------
--|----------------------------|-------------------------|--------------------
    There were people standing   all     around

--------------15----------------|--------------12----------------|------------
------------15------15----------|------------12------12----------|------------
----------16-----------16-------|----------12-----------12-------|------------
--------------------------17----|--------------------------12----|------------
--------------------------------|--------------------------------|------------
--------------------------------|--------------------------------|------------
 something     warm     flowing   through my    eyes        but

-------------------------|--------------------------------|-------------------
-------------------------|----------15--15----------15----|-------------------
-------------------------|----------14--14----------14----|-------------------
--------14-15-14---------|----------16--16----------16----|-------------------
--15---------------15----|-15/17--------------------------|-------------------
-------------------------|--------------------------------|-------------------
 somehow    i found   my       baby      that night     I

------------15-------------------|--------12------------|---------------------
----------15------15-------------|------12------12------|---------------------
--------16-------------16--------|----12-----------12---|---------------------
------------------------------17-|--------------------12|---------------------
---------------------------------|----------------------|---------------------
---------------------------------|----------------------|---------------------
 lifted her  head  she looked at   me and  said

--------------------------|--------------------|------------------------------
--------------------------|-------15---------0-|------------------------------
-------12-----------------|----------14--------|------------------------------
----14----14--------------|----16--------------|------------------------------
-15-----------------------|-17-----------------|------------------------------
--------------------------|--------------------|------------------------------
 hold me   darling just a   little     while    END OF RIFF 2. PLAY IT TILL

-------------------------------------|----------------|------------------|----
-------------------------------------|-8--------7-8-7-|------------------|----
-------------------------------------|----------------|-9------------9-0-|----
-------------------------------------|----------------|------------------|----
-------------------------------------|----------------|------------------|----
-------------------------------------|----------------|------------------|----
 THE CHORUS. Here's the solo(guitar 2) 0hhhhhhhhhhhhhh  oh

--------------|----------------|----------------|-----|----------------|------
-8------7-8-7-|----------------|-8--------7-8-7-|-----|-8--------7-8-7-|------
--------------|--9-----7---7-0-|----------------|-9---|----------------|------
--------------|----------------|----------------|-----|----------------|------
--------------|----------------|----------------|-----|----------------|------
--------------|----------------|----------------|-----|----------------|------
 Ohhhhhhhhhhhh   oh    oh   oh   ohhhhhhhhhhhhhh  oh

-----------|-----------------|------------------------------------------------
-----------|-----------------|-3----------------------------------------------
-----------|-9-----7-----0---|-2b4r2--0---------------------------------------
-----------|-----------------|------------------------------------------------
-----------|-----------------|------------------------------------------------
-----------|-----------------|------------------------------------------------
  guitar 2

-----------|-2---------------|-3----------------------------------------------
-----------|-3-----------2-0-|-3----------------------------------------------
-----------|-2-----------3-0-|-4----------------------------------------------
-----------|-0-----------0-0-|------------------------------------------------
-----------|-----------------|------------------------------------------------
-----------|-----------------|------------------------------------------------
  guitar 1

ⓘ This is the 2nd version of guitar tab for 'Last Kiss' by Pearl Jam, a grunge band formed in 1990 from Seattle, Washington, USA. Pearl Jam is known for their intense rock/pop music.

Other versions of Last Kiss

Last kissTabs

Almost there ...

Sign in to get your own page with links to favourite songs and more. You are just one click away...

Login with Facebook Login with Google