Log in

One click and you are in

Login with Facebook Login with Google

Why sign up and log in

Guitar Tabs Explorer
Peaches bass tabs for I dont give a fuck

Bass tabs

G|----------------------------|----------------------------|
D|----------------------------|----------------------------|
A|----------------------------|----------------------------|
E|--7--7--7--7--7--7--7--7----|--7--7--7--7--7--7--6s-7----|
G|----------------------------|----------------------------|
D|----------------------------|----------------------------|
A|----------------------------|----------------------------|
E|--7--7--7--7--7--7--7--7----|--7--7--7--7--7--7--7--7----|


G|----------------------------|----------------------------|
D|----------------------------|----------------------------|
A|----------------------------|----------------------------|
E|--6s-7--7--7--7--7--7--7----|--7--7--7--7--7--7--7--7----|


G|----------------------------|----------------------------|
D|----------------------------|----------------------------|
A|----------------------------|----------------------------|
E|--7--7--7--7--7--7--7--7----|--7--7--7--7--7--7--7--7----|


G|----------------------------|----|----------------------------|
D|----------------------------|----|----------------------------|
A|----------------------------|----|----------------------------|
E|--7-------------------------|----|--7--7--7--7--7--7--7--7----|


G|----------------------------|----------------------------|
D|----------------------------|----------------------------|
A|----------------------------|----------------------------|
E|--7--7--7--7--7--7--6s-7----|--7--7--7--7--7--7--7--7----|

G|----------------------------|----------------------------|
D|----------------------------|----------------------------|
A|----------------------------|----------------------------|
E|--7--7--7--7--7--7--7--7----|--6s-7--7--7--7--7--7--7----|


G|----------------------------|----------------------------|
D|----------------------------|----------------------------|
A|----------------------------|----------------------------|
E|--7--7--7--7--7--7--7--7----|--7--7--7--7--7--7--7--7----|


G|----------------------------|----------------------------|----|
D|----------------------------|----------------------------|----|
A|----------------------------|----------------------------|----|
E|--7--7--7--7--7--7--7--7----|--7-------------------------|----|


G|----------------------------|----------------------------|
D|----------------------------|----------------------------|
A|----------------------------|----------------------------|
E|--7--7--7--7--7--7--7--7----|--7--7--7--7--7--7--6s-7----|


G|----------------------------|----------------------------|
D|----------------------------|----------------------------|
A|----------------------------|----------------------------|
E|--7--7--7--7--7--7--7--7----|--7--7--7--7--7--7--7--7----|


G|----------------------------|----------------------------|
D|----------------------------|----------------------------|
A|----------------------------|----------------------------|
E|--6s-7--7--7--7--7--7--7----|--7--7--7--7--7--7--7--7----|


G|----------------------------|----------------------------|
D|----------------------------|----------------------------|
A|----------------------------|----------------------------|
E|--7--7--7--7--7--7--7--7----|--7--7--7--7--7--7--7--7----|


G|----------------------------|----|----------------------------|
D|----------------------------|----|----------------------------|
A|----------------------------|----|----------------------------|
E|--7-------------------------|----|--7--7--7--7--7--7--7--7----|


G|----------------------------|----------------------------|
D|----------------------------|----------------------------|
A|----------------------------|----------------------------|
E|--7--7--7--7--7--7--6s-7----|--7--7--7--7--7--7--7--7----|


G|----------------------------|----------------------------|
D|----------------------------|----------------------------|
A|----------------------------|----------------------------|
E|--7--7--7--7--7--7--7--7----|--6s-7--7--7--7--7--7--7----|


G|----------------------------|----------------------------|
D|----------------------------|----------------------------|
A|----------------------------|----------------------------|
E|--7--7--7--7--7--7--7--7----|--7--7--7--7--7--7--7--7----|


G|----------------------------|----------------------------|----|
D|----------------------------|----------------------------|----|
A|----------------------------|----------------------------|----|
E|--7--7--7--7--7--7--7--7----|--7-------------------------|----|


G|----------------------------|----------------------------|
D|----------------------------|----------------------------|
A|----------------------------|----------------------------|
E|--7--7--7--7--7--7--7--7----|--7--7--7--7--7--7--6s-7----|


G|----------------------------|----------------------------|
D|----------------------------|----------------------------|
A|----------------------------|----------------------------|
E|--7--7--7--7--7--7--7--7----|--7--7--7--7--7--7--7--7----|


G|----------------------------|----------------------------|
D|----------------------------|----------------------------|
A|----------------------------|----------------------------|
E|--6s-7--7--7--7--7--7--7----|--7--7--7--7--7--7--7--7----|


G|----------------------------|----------------------------|
D|----------------------------|----------------------------|
A|----------------------------|----------------------------|
E|--7--7--7--7--7--7--7--7----|--7--7--7--7--7--7--7--7----|


G|----------------------------|----|----------------------------|
D|----------------------------|----|----------------------------|
A|----------------------------|----|----------------------------|
E|--7-------------------------|----|--7--7--7--7--7--7--7--7----|


G|----------------------------|----------------------------|
D|----------------------------|----------------------------|
A|----------------------------|----------------------------|
E|--7--7--7--7--7--7--6s-7----|--7--7--7--7--7--7--7--7----|


G|----------------------------|----------------------------|
D|----------------------------|----------------------------|
A|----------------------------|----------------------------|
E|--7--7--7--7--7--7--7--7----|--6s-7--7--7--7--7--7--7----|


G|----------------------------|----------------------------|
D|----------------------------|----------------------------|
A|----------------------------|----------------------------|
E|--7--7--7--7--7--7--7--7----|--7--7--7--7--7--7--7--7----|


G|----------------------------|----------------------------|
D|----------------------------|----------------------------|
A|----------------------------|----------------------------|
E|--7--7--7--7--7--7--7--7----|--7-------------------------|


G|----------------------------|----------------------------|
D|----------------------------|----------------------------|
A|----------------------------|----------------------------|
E|--7-------------------------|--7-------------------------|


G|----------------------------|-------||
D|----------------------------|-------||
A|----------------------------|-------||
E|--7-------------------------|--7----||

Almost there ...

Sign in to get your own page with links to favourite songs and more. You are just one click away...

Login with Facebook Login with Google