Log in

One click and you are in

Login with Facebook Login with Google

Why sign up and log in

Guitar Tabs Explorer
Pavlovs Dog bass tabs for Trafalgar

Bass tabs

  • Tuning: Standard tuning
  • Difficulty: Intermediate
-------------------------------------------------------------------
              Artist - Pavlovs Dog
              **********************
               Song - Trafalgar
               ******************
          Album - Has Anyone Seen Sigfried (1977)
         *****************************************
              Tabbed By - Ayreon77
             **********************
-------------------------------------------------------------------

Tuning = Standard

INTRO
******
G|-------------------|-------------------|
D|--------------5----|--------------5----|
A|----3------7-----7-|----3------7-----7-|
E|-5-----5-----------|-5-----5-----------|


-------------------------------
00:10

VERSE 1
********
G|-------------------|-------------------|-------------------|
D|--------------5----|--------------5----|--------------5----|
A|----3------7-----7-|----3------7-----7-|----3------7-----7-|
E|-5-----5-----------|-5-----5-----------|-5-----5-----------|


G|-------------|-------------|
D|-------------|-------------|
A|------5-5--3-|------5-5--3-|
E|-3-3---------|-3-3---------|

-------------------------------
00:32
VESRSE 2
*********
G|-------------------|-------------------|-------------------|
D|--------------5----|--------------5----|--------------5----|
A|----3------7-----7-|----3------7-----7-|----3------7-----7-|
E|-5-----5-----------|-5-----5-----------|-5-----5-----------|


G|-------------|-------------|
D|-------------|-------------|
A|------5-5--3-|------5-5--3-|
E|-3-3---------|-3-3---------|


-------------------------------
00:56

CHORUS
*******
G|----------|------------------|----------------------|
D|----------|------------------|----------------------|
A|-1~~~-1-3-|-5---3-5----------|-3-5---3-5------------|
E|----------|---5------0-2-3-3-|-----5------0-2-3-3-3-|


G|-------------------------------------------------|
D|--------------------------5-5--------------------|
A|---------0-2--2-2--0----5------5-7-----------4-5-|
E|-3--3-3--------------3--------------7-6-5--7-----|

01:16
G|------------------|--------------------|
D|------------------|--------------------|
A|-5---3-5----------|-3-5---3-5----------|
E|---5------0-2-3-3-|-----5------0-2-3-3-|


-------------------------------
01:26

SOLO
*****
G|-------------------|-------------------|-------------------|-------------------|
D|--------------5----|--------------5----|--------------5----|--------------5----|
A|----3------7-----7-|----3------7-----7-|----3------7-----7-|----3------7-----7-|
E|-5-----5-----------|-5-----5-----------|-5-----5-----------|-5-----5-----------|


-------------------------------
01:44

VERSE 3
********
G|-------------------|-------------------|-------------------|
D|--------------5----|--------------5----|--------------5----|
A|----3------7-----7-|----3------7-----7-|----3------7-----7-|
E|-5-----5-----------|-5-----5-----------|-5-----5-----------|


G|-------------|-------------|
D|-------------|-------------|
A|------5-5--3-|------5-5--3-|
E|-3-3---------|-3-3---------|


-------------------------------
02:07

CHORUS
*******
G|----------|------------------|----------------------|----------------------|----------------------|
D|----------|------------------|----------------------|----------------------|----------------------|
A|-1~~~-1-3-|-5---3-5----------|-3-5---3-5------------|-3-5---3-5------------|-0-3-5---3-5----------|
E|----------|---5------0-2-3-3-|-----5------0-2-2-3-3-|-----5------0-2-2-3-3-|-------5------0-2-3-3-|


-------------------------------
02:27

OUTRO SOLO
***********
G|------------------------|
D|------------------------|
A|-0-3-5---3-5------------|   Fade Out.......
E|-------5------0-2-2-3-3-|X9


ENJOY...........

Almost there ...

Sign in to get your own page with links to favourite songs and more. You are just one click away...

Login with Facebook Login with Google