Log in

One click and you are in

Login with Facebook Login with Google

Why sign up and log in

Guitar Tabs Explorer
Pavlovs Dog bass tabs for Late november

Bass tabs with lyrics

  • Tuning: Standard tuning
  • Difficulty: Beginner
--------------------------------------------------------------------------
                     Artist - Pavlov`s Dog
                     ***********************
                      Song - Late November
                     **********************
                   Album - Pampered Menial (1974)
                   ********************************
                      Tabbed By - Ayreon77
                     **********************
--------------------------------------------------------------------------

Tuning = Standard


INTRO
******
G|-----------|---------|
D|-----------|---------|
A|-5---5---3-|-3---1-3-|
E|---5---5---|---3-----|X4


-------------------
00:15

VERSE 1
********
 Oh, she wants, she wants it badly    Oh And I, I can`t believe all she said
G|--------|-------------|---------------------|--------|-----------|--------|--------|
D|--------|-------------|---------------------|--------|-----------|--------|--------|
A|--------|-------------|-------------------3-|-5-5--5-|-5--3-3--3-|--------|--------|
E|-6--6-6-|-5--5-5-5--5-|-3--3-3-3--3-3-3-6---|--------|-----------|-3--3-3-|-3--3-3-|

 Cause she`s cool, yeah she`s cool She`s just like lightening, Take her home, keep her warm in late November
G|--------|-------------|---------------------|--------|-----------|------------|---------------|
D|--------|-------------|---------------------|--------|-----------|------------|---------------|
A|--------|-------------|-------------------3-|-5-5--5-|-5--3-3--3-|------------|-----------0-3-|
E|-6--6-6-|-5--5-5-5--5-|-3--3-3-3--3-3-3-6---|--------|-----------|-0-1-3-3--3-|-3-3--3--3-----|

-------------------

BREAK
******
00:46
G|-----------|---------|
D|-----------|---------|
A|-5---5---3-|-3---1-3-|
E|---5---5---|---3-----|X4


-------------------
01:02

VERSE 2
********
 I can`t say why she`s so strange now, Why did I always believe all she said
G|----------|---------------|---------------------|--------|--------|--------------|----------|
D|----------|---------------|---------------------|--------|--------|--------------|----------|
A|----------|---------------|-------------------3-|-5-5--5-|-5-3--3-|--------------|----------|
E|-6--6-6-3-|-5-5--5-5-5--5-|-3--3-3-3--3-3-3-6---|--------|--------|-0-1-3--3-3-3-|-3--3-3---|

She`s came down, held me close, Came down from night skies, Take her home, keep her warm in late November
G|----------|-------------|---------------------|--------|-----------|------------|---------------|
D|----------|-------------|---------------------|--------|-----------|------------|---------------|
A|----------|-------------|-------------------3-|-5-5--5-|-5--3-3--3-|------------|-----------0-3-|
E|-6-6--6-6-|-5-5--5-5--5-|-3--3-3-3--3-3-3-6---|--------|-----------|-0-1-3-3--3-|-3-3--3--3-----|

01:33
It just goes to show
G|-----------|---------|
D|-----------|---------|
A|-5---5---3-|-3---1-3-|
E|---5---5---|---3-----|X4


-------------------
01:49

SOLO
*****
G|----------|----------------------|----------------------|----------------------|
D|----------|--------p-------------|--------p-------------|--------p-------------|
A|-5~~~~~~~-|--s--3-5-3---3~~~~~~~-|--s--3-5-3------------|-----3-5-3---3~~~~~~~-|
E|----------|-3\5-------5----------|-3\5-------5-6~~~~~~~-|-3\5-------5----------|


-------------------

BREAK
******
02:04
G|-----------|---------|
D|-----------|---------|
A|-5---5---3-|-3---1-3-|
E|---5---5---|---3-----|X4


-------------------
02:19

VERSE 3
********
 She`s home now, but far away she flies, But she don`t know how she came, Or how she leaves
G|--------|-------------|---------------------|--------|-----------|--------|--------|
D|--------|-------------|---------------------|--------|-----------|--------|--------|
A|--------|-------------|-------------------3-|-5-5--5-|-5--3-3--3-|--------|--------|
E|-6--6-6-|-5--5-5-5--5-|-3--3-3-3--3-3-3-6---|--------|-----------|-3--3-3-|-3--3-3-|

Oh Cause she`s cool, yeah she`s cool, She`s just like lightening, Take her home, keep her warm in late....
G|--------|-------------|---------------------|--------|-----------|------------|---------------|
D|--------|-------------|---------------------|--------|-----------|------------|---------------|
A|--------|-------------|-------------------3-|-5-5--5-|-5--3-3--3-|------------|-----------0-3-|
E|-6--6-6-|-5--5-5-5--5-|-3--3-3-3--3-3-3-6---|--------|-----------|-0-1-3-3--3-|-3-3--3--3-----|

-------------------

OUTRO
******
02:04
G|-----------|---------|
D|-----------|---------|
A|-5---5---3-|-3---1-3-|
E|---5---5---|---3-----|X5


ENJOY.................

Late November bass tab

Pavlovs Dog bass tabs for Late november "Late November" is a track off of American prog-rock band Pavlov´s Dog´s debut album "Pampered Menial" from 1975.

Almost there ...

Sign in to get your own page with links to favourite songs and more. You are just one click away...

Login with Facebook Login with Google