Log in

One click and you are in

Login with Facebook Login with Google

Why sign up and log in

Guitar Tabs Explorer
Pavlovs Dog bass tabs for Jenny

Bass tabs

  • Tuning: Standard tuning
  • Difficulty: Intermediate
-------------------------------------------------------------------
           Artist - Pavlov`s Dog
          ***********************
             Song - Jenny
            **************
           Album - Third ( )
          **********************
           Tabbed By - Ayreon77
          **********************
-------------------------------------------------------------------

Tuning = Standard


INTRO
******
G|--------------|--------------------------------|
D|-------s------|------5--------7----------------|
A|------5\7-5---|--------5-7-8-----8--s----------|
E|-3--3-------7-|-3--3---------------8\10-8~~-10-|


G|------------|------------|-------------------------|
D|-------9--9-|------------|-------------------------|
A|-7--7-------|-7--5--3----|-0-0-0-2-2-2-3-3-3-5-5-5-|
E|------------|----------3-|-------------------------|


-----------------------
00:16

VERSE 1
********
G|--------------|--------------------------------|
D|-------s------|------5--------7----------------|
A|------5\7-5---|--------5-7-8-----8--s----------|
E|-3--3-------7-|-3--3---------------8\10-8~~-10-|

G|------------|------------|------------------------|
D|------------|------------|------------------------|
A|-7--7-------|-7--5--3----|-0--0--2--2--3--3--5--5-|
E|-------7--7-|----------3-|------------------------|

00:31
G|--------------|-----------------------|------------|
D|-------s------|------5----------------|------------|
A|------5\7-5---|--------5---------9--9-|-------9--5-|
E|-3--3-------7-|-3--3-----5-7--7-------|-7--7-------|

00:38
G|------------|---------|--------------------------|
D|------------|---------|---------------2--2--4--4-|
A|-7--7-------|---------|-2-3--3--5--5-------------|
E|-------7--7-|-0--2--4-|--------------------------|


-----------------------
00:46

VERSE 2
********
G|--------------|-----------------------|
D|-5--5--s------|------5----------------|
A|------5\7-5---|--------5-6-7--7-------|
E|------------7-|-3--3-------------7--7-|


G|-----------------------|-------------|---------------|---------|
D|------------------7----|-------7-----|---------------|---------|
A|-7--7----------------7-|---------7-0-|-3--3----------|---3-----|
E|-------7--3-5--5-------|-5--5--------|-------5--5--3-|-5---5-2-|

01:01
G|--------------|-----------------------|
D|-------s------|------5----------------|
A|------5\7-5---|--------5-6-7--7-------|
E|-3--3-------7-|-3--3-------------7--7-|


G|-----------------------|--------------------------------|
D|------------------7----|-----------------5---------9----|
A|-7--7----------------7-|-5--5-3-2-0--------5----------9-|
E|-------7--3-5--5-------|------------3--3-----5-7-7------|


-----------------------
01:16

SOLO
*****
G|------------------------------------|
D|------------------------------------|
A|-7--7--5----------2-2-2-3-3-3-5-5-5-|
E|----------7-5-5-5-------------------|

01:22
G|--------------|----------------------------------|
D|-------s------|------5----------7----------------|
A|------5\7-5---|--------5-7-8--8----8--s----------|
E|-3--3-------7-|-3--3-----------------8\10-8~~-10-|


G|------------|------------|------------------------|
D|------------|------------|------------------------|
A|-7--7-------|-7--5--3----|-0--0--2--2--3--3--5--5-|
E|-------7--7-|----------3-|------------------------|

01:37
G|--------------|-----------------------|------------|
D|-------s------|------5----------------|------------|
A|------5\7-5---|--------5---------9--9-|-------9--5-|
E|-3--3-------7-|-3--3-----5-7--7-------|-7--7-------|


G|------------|---------|---------------------------|
D|------------|---------|---------------2-2-2-4-4-4-|
A|-7--7-------|---------|-2-3-3-3-5-5-5-------------|
E|-------7--7-|-0--2--4-|---------------------------|


-----------------------
01:52

VERSE 3
********
G|--------------|------------------------------------|
D|-5--5--s------|------5----------7-5----------------|
A|------5\7-5---|--------5-7-8--8------8--s----------|
E|------------7-|-3--3-------------------8\10-8~~-10-|


G|------------|------------|------------------------|
D|------------|------------|------------------------|
A|-7--7-------|-7--5--3----|-0--0--2--2--3--3--5--5-|
E|-------7--7-|----------3-|------------------------|

02:07
G|--------------|-----------------------|------------|
D|-------s------|------5----------------|------------|
A|------5\7-5---|--------5---------9--9-|-------9--5-|
E|-3--3-------7-|-3--3-----5-7--7-------|-7--7-------|


G|------------|---------|--------------------------|
D|------------|---------|---------------2--2--4--4-|
A|-7--7-------|---------|-2-3--3--5--5-------------|
E|-------7--7-|-0--2--4-|--------------------------|


-----------------------
02:22

VERSE 4
********
G|--------------|-----------------------|
D|-5--5--s------|------5----------------|
A|------5\7-5---|--------5-6-7--7-------|
E|------------7-|-3--3-------------7--7-|


G|----------------------|---------|---------------------------|
D|------------------7---|-------7-|---------------------------|
A|-7--7--5------------7-|---------|-2-3--3--------3--3--------|
E|---------7-3-5--5-----|-5--5----|---------5--5--------5-3-2-|

02:37
G|--------------|-----------------------|
D|-------s------|------5----------------|
A|------5\7-5---|--------5-6-7--7-------|
E|-3--3-------7-|-3--3-------------7--7-|


G|-----------------------|-----------------------------------------------------s------|
D|------------------7----|-----------------5--------------------------------5-5\7-5---|
A|-7--7----------------7-|-5--5-3-2-0--------5-6-7--7-7-7--5-3--3--------3----------7-|
E|-------7--3-5--5-------|------------3--3-------------------------3--3---------------|

02:55
G|--------------------------|
D|--------7~~---------------|
A|-5--5-5-----5-3--3--5-2-0-|
E|--------------------------|


-----------------------
02:59

SOLO
***** ...............Play all of this 4 times and on the 4th time play the bottom part to finish........
G|--------------|-----------------------|---------|--------------|--------|------------------|---------|
D|-------s------|------5----------------|---------|--------------|--------|------------------|---------|
A|------5\7-5---|--------5-6-7--7-------|---------|-2-3--3-------|-3--3---|-3-4-5--5-----5-3-|-3-5-2-0-|
E|-3--3-------7-|-3--3-------------7--7-|-0--2--4-|---------3--3-|------3-|-----------5------|---------|
                                      |
                                      |
  ....................4th time from here..................................
G|-------------|-------------------------------|
D|-------------|-----0-2-0-2-4-5~~~~~~~~~~~~~~-|
A|-3-4-5--5----|-2-3---------------------------|
E|-----------5-|-------------------------------|


ENJOY.............

Almost there ...

Sign in to get your own page with links to favourite songs and more. You are just one click away...

Login with Facebook Login with Google