Log in

One click and you are in

Login with Facebook Login with Google

Why sign up and log in

Guitar Tabs Explorer
Pavlovs Dog bass tabs for Its all for you

Bass tabs

  • Tuning: Standard tuning
  • Difficulty: Intermediate
-------------------------------------------------------------------
           Artist - Pavlovs Dog
          **********************
          Song - It`s All For You
         *************************
     Album - Has Anyone Here Seen Sigfried (1977)
     **********************************************
           Tabbed By - Ayreon77
          **********************
-------------------------------------------------------------------

Tuning = Standard
No Bass In Verse 1


00:40

VERSE 2
********
G|------------------------|--------------------------------|----------------------|
D|------------------------|--------------------------------|-5~~~-----------------|
A|-5~~~-------------------|-5~~~-5~~~-----------3~~~-5-6~~-|-----------3~~~-5-6~~-|
E|-------5~~~--7~~~--5~~~-|-----------3~~~-3~~~------------|------3~~~------------|


-------------------------
01:08

CHORUS
*******
G|---------------------|-------------------|--------------------------|-------------------|
D|---------------------|-5~~~--------------|--------------------------|-5~~~--------------|
A|-5~~~-5~~~-5~~~-5~~~-|---------------3~~-|-5~~~-5~~~-5~~~-5~~~-5~~~-|---------------3~~-|
E|---------------------|------3~~~-6~~-----|--------------------------|------3~~~-6~~-----|

01:38
G|-------------|------------------------|
D|-------------|------------------------|
A|-5~~~-5-3--3-|------------------------|
E|-------------|-6--6--6--6--8--8--8--8-|

-------------------------
01:46

BREAK
******
G|----------------------------|----------------------------|
D|----------------------------|----------------------------|
A|-5~~~-----------------------|-5~~~-----------------------|
E|-------5~~~--7~~~--5~~~-7~~-|-------5~~~--7~~~--5~~~-7~~-|


-------------------------
02:02

VERSE 3
********
G|------------------------|--------------------------------|----------------------|-----------|
D|------------------------|--------------------------------|-5~~~-----------------|-5--s------|
A|-5~~~-------------------|-5~~~-5~~~-----------3~~~-5-6~~-|-----------3~~~-5-6~~-|---6\\------|
E|-------5~~~--7~~~--5~~~-|-----------3~~~-3~~~------------|------3~~~------------|-------3~~-|


-------------------------
02:34

CHORUS
*******
G|---------------------|-------------------|----------------------------|-------------------|
D|---------------------|-5~~~--------------|----------------------------|-5~~~--------------|
A|-5~~~-5~~~-5~~~-5~~~-|---------------3~~-|-5~~~-5~~~---5~~~-5~~~-5~~~-|---------------3~~-|
E|---------------------|------3~~~-6~~-----|-----------5----------------|------3~~~-6~~-----|


G|------------------|------------------------|------|
D|------------------|------------------------|------|
A|-5~~~-5-5-3-3-3-3-|------------------------|-5~~~-|
E|------------------|-6--6--6--6--8--8--8--8-|------|


-------------------------
03:24

OUTRO
******
G|-------------|--------------|-------------|-------------|
D|-------------|--------------|-------------|-------------|
A|-5-5-5-------|-5-5-7-8-10-7-|-5-5-5-------|-5-5-----0-3-|
E|-------8-7-8-|--------------|-------8-7-8-|-----0-2-----|


G|-------------|--------------|-------------|---------------------|
D|-------------|--------------|-------------|----------------s----|
A|-5-5-5-------|-5-5-5-7-8-10-|-5-5-5-------|-5-5---------1-3\\5-5|
E|-------8-7-8-|--------------|-------8-7-8-|-----0-0-1-3---------|


G|-------------|--------------|
D|-------------|--------------|
A|-5-5-5-------|-5-5-5-7-8-10-|
E|-------8-7-8-|--------------|


ENJOY.............

Its All For You bass tab

Pavlovs Dog bass tabs for Its all for you "It´s all for you" is a track from American prog-rock band Pavlov´s Dog 1977 album "Has Anyone Here Seen Sigfried".

Almost there ...

Sign in to get your own page with links to favourite songs and more. You are just one click away...

Login with Facebook Login with Google