Log in

One click and you are in

Login with Facebook Login with Google

Why sign up and log in

Guitar Tabs Explorer
Pavlovs Dog bass tabs for Falling in love

Bass tabs with lyrics

  • Tuning: Standard tuning
  • Difficulty: Beginner
--------------------------------------------------------------------------
                     Artist - Pavlovs Dog
                     **********************
                     Song - Falling In Love
                    ************************
                Album - Has Anyone Here Seen Sigfried? (2007)
                ***********************************************
                     Tabbed By - Ayreon77
                     **********************
--------------------------------------------------------------------------

Tuning = Standard


INTRO
******
G|--------|----------|----------------|--------|
D|--------|----------|-2-4--4-4-2-----|--------|
A|-0--0-0-|-2-4--4-4-|------------4---|--------|
E|--------|----------|--------------2-|-2-2--4-|X2


----------------------
00:15

VERSE 1
********
I love to see you in summer
G|------|--------|----------|--------|-----|
D|------|--------|----------|--------|-----|
A|-0--0-|-2-4--4-|-4-3-2--2-|---2--2-|-----|
E|------|--------|----------|-2------|-0-2-|

Then sometimes August just will never be found
G|------|--------|----------|--------|-----|
D|------|--------|----------|--------|-----|
A|-0--0-|-2-4--4-|-4-3-2--2-|---2--2-|-----|
E|------|--------|----------|-2------|-0-2-|

Laughing, blowing kisses all about me
G|------|--------|----------|--------|-----|
D|------|--------|----------|--------|-----|
A|-0--0-|-2-4--4-|-4-3-2--2-|---2--2-|-----|
E|------|--------|----------|-2------|-0-2-|

It was just your love that keeps me hanging around
G|------|--------|----------|--------|---|
D|------|--------|----------|--------|---|
A|-0--0-|-2-4--4-|-4-3-2--2-|---2--2-|---|
E|------|--------|----------|-2------|-2-|

----------------------
00:42

CHORUS
*******
Oh then it wouldn`t be me just falling in love............
G|--------|----------|----------------|--------|
D|--------|----------|-2-4--4-4-2-----|--------|
A|-0--0-0-|-2-4--4-4-|------------4---|--------|
E|--------|----------|--------------2-|-2-2--4-|X2


----------------------
00:55

BRIDGE 1
*********
Tough luck if you`re in it, try your best if your heart`s not in it
G|------|----------|----------|----------|-------|
D|------|-2---4--4-|-2--------|-----2--2-|-------|
A|-4--4-|---4------|---4-2--2-|-2-4------|-2-3-4-|
E|------|----------|----------|----------|-------|

And if you make up your mind, then you needn`t waste any more time
G|---|----------|----------|----------|-------|
D|---|-2---4--4-|-2--------|-----2--2-|-------|
A|-4-|---4------|---4-2--2-|-2-4------|-2-3-4-|
E|---|----------|----------|----------|-------|

But if it`s not love for sure, then I won`t need you anymore
G|---|----------|----------|----------------|
D|---|-2---4--4-|-2--------|----------------|
A|-4-|---4------|---4-2--2-|-2-4------------|
E|---|----------|----------|-----0--2--3--4-|


----------------------
01:15

CHORUS
*******
Because it wouldn`t be me just falling in love, falling in love...........
G|--------|----------|----------------|--------|
D|--------|----------|-2-4--4-4-2-----|--------|
A|-0--0-0-|-2-4--4-4-|------------4---|--------|
E|--------|----------|--------------2-|-2-2--4-|X2


----------------------
01:29

BRIDGE 2
*********
I`m not ready for love and baby hold my hand And maybe walk me home tonight
G|--------|-----------|--------|--------|--------|---------|
D|--------|----2--2-2-|--------|--------|-2--4-4-|-4-2-2---|
A|-2--2-2-|-4---------|-4--0-0-|-2--4-4-|--------|-------4-|
E|--------|-----------|--------|--------|--------|---------|

I`m not ready for love, dear Or maybe walk me home I won`t be home tonight
G|--------|-----------|--------|--------|--------|-----------|
D|--------|----2--2-2-|--------|--------|-2--4-4-|-4-2-2-----|
A|-2--2-2-|-4---------|-4--0-0-|-2--4-4-|--------|-------4-4-|
E|--------|-----------|--------|--------|--------|-----------|

01:42
CHANGE
G|------------|---------------------|------------|---------------------|
D|------------|---------------------|------------|---------------------|
A|-5--5---5-5-|-5---5-5-------------|-5--5---5-5-|-5---5-5-------------|
E|------5-----|---5-----7-7-5-5-7-7-|------5-----|---5-----7-7-5-5-2-2-|


----------------------
01:49

SOLO
*****
G|--------|----------|----------------|--------|
D|--------|----------|-2-4--4-4-2-----|--------|
A|-0--0-0-|-2-4--4-4-|------------4---|--------|
E|--------|----------|--------------2-|-2-2--4-|X4


----------------------
02:16

VERSE 2
********
I love to see you in summer
G|------|--------|----------|--------|-----|
D|------|--------|----------|--------|-----|
A|-0--0-|-2-4--4-|-4-3-2--2-|---2--2-|-----|
E|------|--------|----------|-2------|-0-2-|

But then sometimes August will just never be found
G|------|--------|----------|--------|-----|
D|------|--------|----------|--------|-----|
A|-0--0-|-2-4--4-|-4-3-2--2-|---2--2-|-----|
E|------|--------|----------|-2------|-0-2-|

And with you laughing, blowing kisses all about me
G|------|--------|----------|--------|-----|
D|------|--------|----------|--------|-----|
A|-0--0-|-2-4--4-|-4-3-2--2-|---2--2-|-----|
E|------|--------|----------|-2------|-0-2-|

Oh was It just your love that keeps me hanging around
G|------|--------|----------|--------|---|
D|------|--------|----------|--------|---|
A|-0--0-|-2-4--4-|-4-3-2--2-|---2--2-|---|
E|------|--------|----------|-2------|-2-|


----------------------
02:43

CHORUS
*******
Because it wouldn`t be me just falling in love, falling in love...........
G|--------|----------|----------------|--------|
D|--------|----------|-2-4--4-4-2-----|--------|
A|-0--0-0-|-2-4--4-4-|------------4---|--------|  fade out..............
E|--------|----------|--------------2-|-2-2--4-|X6


ENJOY........

Almost there ...

Sign in to get your own page with links to favourite songs and more. You are just one click away...

Login with Facebook Login with Google