Log in

One click and you are in

Login with Facebook Login with Google

Why sign up and log in

Guitar Tabs Explorer
Pavlovs Dog tabs for Episode

Guitar tabs with lyrics

  • Tuning: Standard tuning
  • Difficulty: Beginner
Artist - Pavlov`s Dog
                                         ***********************
                                             Song - Episode
                                            ****************
                                         Album - Pampered Menial
                                        *************************
                                          Tabbed By - Ayreon77
                                         **********************


INTRO - VIOLIN
******
A chord diagramB minorBm

---------------------------------------------
00:15

VERSE 1
********
Clean Electric Guitar Picking
Do this with verse 1 below
 A chord diagramB minorBm                                  A chord diagramF# minorF#m
[---------2-----------------2-------|---------2-----------------2-------]
[-----3-----3---3-------3-----3---3-|-----2-----2---2-------2-----2---2-]
[---4---4-----4-------4---4-----4---|---2---2-----2-------2---2-----2---]
[-4-----------------4---------------|-4-----------------4---------------]
[-----------------------------------|-----------------------------------]
[-----------------------------------|-----------------------------------]

 A chord diagramC# minorC#m                                 A chord diagramF#F#
[---------4-----------------4-------|---------2--------------------------]
[-----5-----5---5-------5-----5---5-|-----2-----2---3-------2--------2---]
[---6---6-----6-------6---6-----6---|---3---3-----3-------3---3----3---3-]
[-6-----------------6---------------|-4-----------------4--------4-------]
[-----------------------------------|------------------------------------]
[-----------------------------------|------------------------------------]X2

                                     guitar 2 2nd time around
                                    [---6---6---6---6--s--7---7--s---9----9-]
                                    [-7---7---7---7---7\9---9---9\11---11---]
                                    [---------------------------------------]
                                    [---------------------------------------]
                                    [---------------------------------------]
                                    [---------------------------------------]

VERSE 1
********
Acoustic Chords
A chord diagramB minorBm                          A chord diagramF# minorF#m
  I caught you walking on a rainy day
A chord diagramC# minorC#m                        A chord diagramF#F#
   And tossing petals to a pool
A chord diagramB minorBm                              A chord diagramF# minorF#m
  So keep your mind off passing hours
A chord diagramC# minorC#m                             A chord diagramF#F#
   Cause I`ll be coming for you soon

---------------------------------------------

CHORUS
*******
A chord diagramBB                        A chord diagramF# minorF#m
  Make believe you are a dancer
A chord diagramC# minorC#m                                 A chord diagramE MajorE
   Though perhaps you make a better queen
A chord diagramBB                                      A chord diagramF#F#
 And before you leave you better count roses
    A chord diagramC# minorC#m                      A chord diagramE MajorE
And mad, mad way you want to scream
                A chord diagramD MajorD              A chord diagramE minorEm
Oh If you want,   he gives you slippers
A chord diagramG+G                             A chord diagramD MajorD
Or shoot an arrow on past the sun
                           A chord diagramE minorEm
Or be the keeper always of my mind and heart
A chord diagramG+G                      A chord diagramD MajorD
  Or is it best you go unseen

---------------------------------------------

VIOLIN - A chord diagramE minorEm A chord diagramD MajorD A chord diagramE minorEm A chord diagramD MajorD A chord diagramE minorEm
*******

---------------------------------------------

VERSE 2
********
A chord diagramB minorBm                                  A chord diagramF# minorF#m
  Once you were star-struck and now twice you`re not
A chord diagramC# minorC#m                            A chord diagramF#F#
   And things go badly as they do
A chord diagramB minorBm                            A chord diagramF# minorF#m
  And all the rainbows out of heaven
A chord diagramC# minorC#m                            A chord diagramF#F#
   I`ll only steal them when I can

---------------------------------------------

CHORUS
*******
A chord diagramBB                           A chord diagramF# minorF#m
  And me I`m just your hard soldier
A chord diagramC# minorC#m                        A chord diagramE MajorE
   An heirloom to a basket queen
A chord diagramBB                             A chord diagramF#F#
  And all the blisters in our fevered
A chord diagramC# minorC#m                           A chord diagramE MajorE
   And only silence killed my dreams
               A chord diagramD MajorD                A chord diagramE minorEm
Oh If you want   he`ll give you slippers
A chord diagramG+G                             A chord diagramD MajorD
Or shoot an arrow on past the sun
                              A chord diagramE minorEm
Or be the keeper always of my mind and heart
A chord diagramG+G
  You think you got control, you don`t

You`ll never know, you`ll never know


       A chord diagramD MajorD                    A chord diagramE minorEm
You`ll be the keeper of the Holy Grail
A chord diagramG+G                                  A chord diagramD MajorD
  You seize it quick, you dare not fail
                                 A chord diagramE minorEm
You`re the only survivor of your holy quest
A chord diagramG+G                      A chord diagramE minorEm       A chord diagramD MajorD
  Or is it best you go unseen

[-----------3------------------3---------------2-]
[-------3-------3----------3-------3-----------3-]
[---4-----4---4---4----4-----4---4---4------0--2-]
[-----5------------------5------------------2--0-]
[-------------------------------------------2----]
[-3------------------3------------------3-2-0----]


This is a cool tune

Enjoy...........

Almost there ...

Sign in to get your own page with links to favourite songs and more. You are just one click away...

Login with Facebook Login with Google