Log in

One click and you are in

Login with Facebook Login with Google

Why sign up and log in

Guitar Tabs Explorer
Pavement bass tabs for Summer babe

Bass tabs

"Summer Babe"
tabbed by Liam Fletcher

Tuning - Standard
Verse/First Chorus

G|---------------------------------------------------|
D|-------------------------------7--------5----------|
A|-5---5--5--5--5--5--5--5-5-------------------------|
E|----------------------------5-----5--3-----3--3-3--|


Chorus

G|------------------------------------------------|
D|----------------------------7--------5----------|
A|-5---5--5--12--10--9----------------------------|
E|---------------------10--5-----5--3-----3--3-3--|


Bridge

G|--------------------------------------------------|
D|--------------------------------------------------|
A|-5------------------------------------------------|
E|---------------------------5--5--5--3--3--3--3-3--|

G|--------------------------------------------------|
D|------------------------------7--------5----------|
A|-5------------------------------------------------|
E|---------------------------5-----5--3-----3--3-3--|

and sometimes, during choruses it's just

G|--------------------------------------------------|
D|--------------------------------------------------|
A|-5---5--5--5--5--5--5--5-5------------------------|
E|---------------------------5--5--5--3--3--3--3-3--|

Almost there ...

Sign in to get your own page with links to favourite songs and more. You are just one click away...

Login with Facebook Login with Google