Log in

One click and you are in

Login with Facebook Login with Google

Why sign up and log in

Guitar Tabs Explorer
Pavement bass tabs for Stereo

Bass tabs with lyrics

Hello, here is my first song that I tabbed out. It is the bass tab for
the pavement song "stereo" off the brighten the corners album and this
tab is all my own work. It is pretty easy as the song has a couple of
different patterns that repeat a lot. Listen to the song to get the
right tempo.
Intro
G-------------------------------------------------------
D-------------3\1------2-2-2----------5-5-5-2-2--
A----5\3----2----------------3-3---------------------
E--3----------------------------------------------------


Pattern 1
G-------------------------------------------------
D--------3-------2-2-2----------5-5-5-2-2--
A----5-2---------------3-3---------------------
E--3-------1-------------------------------------

play this part 6 times (at the 2nd time that is when the vocals come in)
then it goes to-

Pattern 2
G---------------------------------------------------------------
D--------3-------------------3--------------------------------
A----5-2---------3-------5-2---------3-2-3-2-3-2-3-2--
E--3-------1-----------3-------1-----------------------------

it then goes into Pattern 3

Pattern 3
G-----------------------------------------------------------------------
D-----------------------------------------------------------------------
A----------------------------------------------------3- 3------------------
E--3-3-3---3-3-3---3-3-3---3-3-3---3-1-1---1-1-1---1---------

play this twice and then play Pattern 1 four times.
then there is silence on the bass for two measures.
next play Pattern 1 four times
then play Pattern 2
next play Pattern 3 two times

that is the end of the song. If you have any questions or comments
please email me at mike@plasticleach.com


-mike

Almost there ...

Sign in to get your own page with links to favourite songs and more. You are just one click away...

Login with Facebook Login with Google