Log in

One click and you are in

Login with Facebook Login with Google

Why sign up and log in

Guitar Tabs Explorer
Pavement tabs for Spit on a stranger

Guitar tabs

spit on a stranger by pavement(1999)

guitar tablature and brilliant summation made possible by the generousity of
pascale grimaldi.
intro(simple version)

-----------------------|
-----------------------|
-------------9---------|compulsively repeat
--------9---------9----|
----7------------------|
-----------------------|


intro(with modified bassline)

--------------------------------------------------|
----------5--------------5----------5-------------|
------4------4--------4----4-----4-----4----------| X 3
--2--------------4/6----------4-----------4---6---|
--------------------------------------------------|
--------------------------------------------------|


					  * strike then mute

----------------------------------------|------|
--------5------------5-------------5----|-4--4-|
----4-------4-----4-----4------4------4-|-4--4-|X whatever
-2-------------0------------------------|-4--4-|
---------------------------4------------|-2--2-|
----------------------------------------|------|



VERSE

A chord diagramE MajorE			      A chord diagramA augmentedA	A chord diagramBB
however you ...., whatever .. takes




CHORUS

A chord diagramC#C#							   A chord diagramA augmentedA
i've been thinking ...................................you said to me
		A chord diagramE MajorE   A chord diagramF#F#
like a ...... stranger

A chord diagramA augmentedA		A chord diagramE MajorE   A chord diagramF#F#




OUTRO

Other versions of Spit On A Stranger

Spit on A StrangerChords

Almost there ...

Sign in to get your own page with links to favourite songs and more. You are just one click away...

Login with Facebook Login with Google