Log in

One click and you are in

Login with Facebook Login with Google

Why sign up and log in

Guitar Tabs Explorer
Pavement bass tabs for Shady lane

Bass tabs

A Shady Lane - Pavement
-------------------------------------------------------------------------------

Tabbed By: tako.ninj4
e-mail: tako.ninj4@gmail.com
Tuning: Standard


Verse:

G---------------------------------------------------------------------|
D----------------------------------------4---4-4---4------5---5-5---5-|
A-----5---5-5---5-----2---2-2---2----2-2---2-----2----3-3---3-----3---|
E-3-3---3-----3---0-0---0-----0---------------------------------------|x3


Chorus:

G---------------------------------|
D---------------------4-------5---|
A-----5-------2---2-2---2-3-3---3-|
E-3-3---3-0-0---0-----------------|x2

G---------------------------------|
D-----5-----------------------4---|
A-3-3---3-----5-------2---2-2---2-|
E---------3-3---3-0-0---0---------|x3

G------------------------|
D-----5---5--------------|
A-3-3---3---3----3-2-0---|
E----------------------3-|

This one is pretty easy i hope, but it's my first attempt at tabbing, so feel free to

Almost there ...

Sign in to get your own page with links to favourite songs and more. You are just one click away...

Login with Facebook Login with Google