Log in

One click and you are in

Login with Facebook Login with Google

Why sign up and log in

Guitar Tabs Explorer
Pavement chords for Old to begin

Guitar chords

Band: Pavement
Album: Brighten the Corners


Tuning - FA#DFA#F
Intro

F--------0---------0---------0---------0-----------------------------
A#-------4---------4---------5---------7-----------------------------
F--------0---------0---------0---------0-----------------------------
D--------3---------3---------5---------8-----------------------------
A#-------0---------0---------0---------0-----------------------------
F--------x---------x---------x---------x-----------------------------

F--------x---------2---------
A#-------x---------2---------
F--------x---------2---------
D--------5---------2---------
A#-------5---------2---------
F--------5---------2---------


Verse (Same as Intro)


Chorus (old to begin...)

F--------0---------0---------x---------x-----------------------------
A#-------0---------0---------x---------x-----------------------------
F--------0---------3---------x---------x-----------------------------
D--------0---------0---------5---------2-----------------------------
A#-------0---------2---------5---------2-----------------------------
F--------0---------0---------5---------2-----------------------------

Well, that's it. Hope you enjoy!
Contact me at Bloomage_87@hotmail.com

Almost there ...

Sign in to get your own page with links to favourite songs and more. You are just one click away...

Login with Facebook Login with Google