Log in

One click and you are in

Login with Facebook Login with Google

Why sign up and log in

Guitar Tabs Explorer
Pavement bass tabs for Harness your hopes

Bass tabs

Tuning: Standard (E A D G)


Intro:

G|-----------------------------------------------------------------------------------|
D|-------------------------------------7----7-6-7-9-7--10-----10-9-10-12-10--/14~14--|
A|-5---5-3---5---0-2-3-5-7-5-3---0-3-5-----7---------------10------------------------|
E|---0---------3--------------3------------------------------------------------------|
G|------------------------------------------------------------------------------|
D|------------------------------------------------/14-14-14-14-14-14-14---------|
A|-7-8-7-5----7-8-7-5---7-8-7-5----------/7-7-7-7-------------------------------|
E|--------0~0--------0~0---------0-0-0-0----------------------------------------|

G|---------------------------------------------|
D|---------------------------------------------|
A|---------------------------------------------|
E|5-5-5---5-5-5---5-5-5--5-5-5--5-5-5--5-5-5---|


Verse 1: From when vocals come in "Harness your hopes on..."

G|----------------------------------------------------------------------------|
D|------------------4~4-2---------------------------------------4~4-2---------|
A|-----4~4-2-0-0-0--------2-----4~4-2-0-0----------4~4-2-0-0-0--------2-------|
E|-2-2----------------------2-2---------------2-2-----------------------2-2---|

G|---------------------------------------------------7-------------------------|
D|---------------------------------4~4-------------7---7-----------------------|
A|4~4-2-0-0----0-0-0-0-0-0--2-2---2-----2-4-5-5---5------5---------------------|
E|---------------------------------------------------------2-2--0-2-2-0-2-5----|

G|-------------------------------------------7------------------------------------|
D|-------------------------4~4-------------7---7----------------------------------|
A|----------------2-2---2-----2-4-5-5---5-----------------------------------------|
E|--5-5-5-5-5-5-5-------------------------------2-2--0-2-2-0-2-5---5-5-5-5-5-5-5--| X2


Chorus/ interval: "Heartbreaking, earthquaking, Kiwis, theyre at home baking..."

G|--------------------------------------------------------|
D|---4-6--9-12--12-11-9---4-7---------1-4---6-9--10~-11---|
A|----------------------5-------4-7-2-----7---------------|
E|-0~---------------------------5-------------------------|


Verse 2: "Leisure, a leisure suit is nothing.."

G|----------------------------------------------------------------------------|
D|------------------4~4-2---------------------------------------4~4-2---------|
A|-----4~4-2-0-0-0--------2-----4~4-2-0-0----------4~4-2-0-0-0--------2-------|
E|-2-2----------------------2-2---------------2-2-----------------------2-2---|

G|---------------------------------------------------7----------------------------------------|
D|---------------------------------4~4-------------7---7--------------------------------------|
A|4~4-2-0-0----0-0-0-0-0-0--2-2---2-----2-4-5-5---5------5------------------------------------|
E|---------------------------------------------------------2-2--0-2-2-0-2-5---5-5-5-5-5-5-5---|

G|-------------------------------------------7------------------------------------|
D|-------------------------4~4-------------7---7----------------------------------|
A|----------------2-2---2-----2-4-5-5---5-----------------------------------------|
E|-5-5-5-5-5-5-5--------------------------------2-2--0-2-2-0-2-5---5-5-5-5-5-5-5--| X2


Chorus/ interval: "nun is to church as the parrot is to perch.."

G|--------------------------------------------------------|
D|---4-6--9-12--12-11-9---4-7---------1-4---6-9--10~-11---|
A|----------------------5-------4-7-2-----7---------------|
E|-0~---------------------------5-------------------------|


Guitar solo/ Outro:

G|--------------------------|
D|------------------4~4-2---|
A|-----4~4-2-0-0-0--------2-| loop this continuously
E|-2-2----------------------| X8


************************************

| / Slide up
| ~ Vibrato

************************************

Almost there ...

Sign in to get your own page with links to favourite songs and more. You are just one click away...

Login with Facebook Login with Google