Log in

One click and you are in

Login with Facebook Login with Google

Why sign up and log in

Guitar Tabs Explorer
Pavement bass tabs for Grounded

Bass tabs

Grounded - Pavement
-------------------------------------------------------------------------------

Tabbed By : Au79
e-mail: william.lamar@yahoo.com
Tuning: Standard

This is a very simple song (which is the case for a lot of Pavements songs, at
least the singles, etc.)


INTRO
First part begins after cymbals and lead guitar intro.
G|---------------------------------------------------------------------------|
D|----------7-------------7-------------7-------------7----------------------|
A|------5-------7-----5-------7-----5-------7-----5-------7------------------|
E|---------------------------------------------------------------------------|

VERSES/CHORUSES
I play it this way as this is exactly how I interpret the song, you may choose to play the notes
for different amounts of times each for each line. The song is open to a lot of improvisation
G|---------------------------------------------------------------------------|
D|--------------------------------------7---7---7---7------------------------|
A|------5---5---5---5---5---5---5---5-------------------7---7---7---7--------|
E|---------------------------------------------------------------------------|
  -REPEAT X4


OUTRO
The outro is close to the exact same as the rest of the song. It begins similar to the

Almost there ...

Sign in to get your own page with links to favourite songs and more. You are just one click away...

Login with Facebook Login with Google