Log in

One click and you are in

Login with Facebook Login with Google

Why sign up and log in

Guitar Tabs Explorer
Pavement bass tabs for Grave architecture

Bass tabs

GRAVE ARCHITECTURE (bass)

G||------|------|------|------|------------------------|
D||------|------|------|------|------------------------|
A||------|------|------|------|------------------------|
E||------|------|------|------|--1--1--1--1----1----1--|

------------------------|------------------------|------------------------|
------------------------|------------------------|------------------------|
--1--1--1--1----1----1--|------------------------|--1--1--1--1----1----1--|
------------------------|--1--1--1--1----1----1--|------------------------|


------------------------|------------------------|------------------------|
------------------------|------------------------|------------------------|
------------------------|--1--1--1--1----1----1--|------------------------|
--1--1--1--1----1----1--|------------------------|--1--1--1--1----1----1--|


------------------------|----------------------|-----------------------|
------------------------|----------------------|-----------------------|
--1--1--1--1----1----1--|-------------------0--|--1----0--1------1--1--|
------------------------|--1------1------1-----|-----------------------|


----------------------|-----------------------|----------------------|
----------------------|-----------------------|----------------------|
-------------------0--|--1----0--1------1--1--|-------------------0--|
--1------1------1-----|-----------------------|--1------1------1-----|


-----------------------|----------------------|-----------------------|
-----------------------|----------------------|-----------------------|
--1----0--1------1--1--|-------------------0--|--1----0--1------1--1--|
-----------------------|--1------1------1-----|-----------------------|


--------------------------|--------------------------|
--------------------------|--------------------------|
--------------------------|--1--1--1--1--1--1--1--1--|
--1--1--1--1--1--1--1--1--|--------------------------|


--------------------------|--------------------------|
--------------------------|--------------------------|
--------------------------|--1--1--1--1--1--1--1--1--|
--1--1--1--1--1--1--1--1--|--------------------------|


--------------------------|--------------------------|
--------------------------|--------------------------|
--------------------------|--1--1--1--1--------------|
--1--1--1--1--1--1--1--1--|--------------4--4--4--4--|


--------------------------|--------------------------|
--------------1--1--1--1--|--------------------------|
--------------------------|--1--1--1--1--------------|
--1--1--1--1--------------|--------------4--4--4--4--|


--------------------------|--------------------------|
--------------1--1--1--1--|--------------------------|
--------------------------|--1--1--1--1--------------|
--1--1--1--1--------------|--------------4--4--4--4--|


--------------------------|--------------------------|-------------------|
--------------1--1--1--1--|--------------------------|-------------------|
--------------------------|--1--1--1--1--------------|-------------------|
--1--1--1--1--------------|--------------4--4--4--4--|--1----------------|


------------------|----------------------|-----------------------|
------------------|----------------------|-----------------------|
------------------|-------------------0--|--1----0--1------1--1--|
------------------|--1------1------1-----|-----------------------|


----------------------|-----------------------|----------------------|
----------------------|-----------------------|----------------------|
-------------------0--|--1----0--1------1--1--|-------------------0--|
--1------1------1-----|-----------------------|--1------1------1-----|


-----------------------|----------------------|-----------------------|
-----------------------|----------------------|-----------------------|
--1----0--1------1--1--|-------------------0--|--1----0--1------1--1--|
-----------------------|--1------1------1-----|-----------------------|


--------------------------|--------------------------|
--------------------------|--------------------------|
--------------------------|--1--1--1--1--1--1--1--1--|
--1--1--1--1--1--1--1--1--|--------------------------|


--------------------------|--------------------------|
--------------------------|--------------------------|
--------------------------|--1--1--1--1--1--1--1--1--|
--1--1--1--1--1--1--1--1--|--------------------------|


--------------------------|--------------------------|
--------------------------|--------------------------|
--------------------------|--1--1--1--1--------------|
--1--1--1--1--1--1--1--1--|--------------4--4--4--4--|


--------------------------|--------------------------|
--------------1--1--1--1--|--------------------------|
--------------------------|--1--1--1--1--------------|
--1--1--1--1--------------|--------------4--4--4--4--|


--------------------------|--------------------------|
--------------1--1--1--1--|--------------------------|
--------------------------|--1--1--1--1--------------|
--1--1--1--1--------------|--------------4--4--4--4--|


--------------------------|--------------------------|-------------------|
--------------1--1--1--1--|--------------------------|-------------------|
--------------------------|--1--1--1--1--------------|-------------------|
--1--1--1--1--------------|--------------4--4--4--4--|--1----------------|


------------------|-----------------------------------|
------------------|-----------------------------------|
------------------|-----------------------------------|
------------------|--1--------------------------------|


-----------------------------------|-----------------------------------|
-----------------------------------|-----------------------------------|
-----------------------------------|-----------------------------------|
--1--------------------------------|--1--------------------------------|


-----------------------------------|
-----------------------------------|
-----------------------------------|
--1--------------------------------|


-------------------------------------------------|
-------------------------------------------------|
----8--8--8--8--6--6--6--6-----------------------|
----------------------------6--6--6--6--4--4--4--|


--------------------------------------------------|
-----------------------------8--8--8--8--6--6--6--|
-----8--8--8--8--6--6--6--6-----------------------|
--4-----------------------------------------------|


--------------------------------------------------|
--6-----------------------------------------------|
-----8--8--8--8--6--6--6--6-----------------------|
-----------------------------6--6--6--6--4--4--4--|


--------------------------------------------------|--------------------------|
--------------------------------------------------|--------------1--1--1--1--|
-----8--8--8--8--6--6--6--6-----------------------|--------------------------|
--4--------------------------6--6--6--6--4--4--4--|--1--1--1--1--------------|


--------------------------|--------------------------|
--------------------------|--------------1--1--1--1--|
--1--1--1--1--------------|--------------------------|
--------------4--4--4--4--|--1--1--1--1--------------|


--------------------------|--------------------------|
--------------------------|--------------1--1--1--1--|
--1--1--1--1--------------|--------------------------|
--------------4--4--4--4--|--1--1--1--1--------------|


--------------------------|--------------------------|
--------------------------|--------------1--1--1--1--|
--1--1--1--1--------------|--------------------------|
--------------4--4--4--4--|--1--1--1--1--------------|


--------------------------|-------------------|------------------|
--------------------------|-------------------|------------------|
--1--1--1--1--------------|-------------------|------------------|
--------------4--4--4--4--|--1----------------|------------------|


-----------------------|-----------------------|-----------------------|
-------3--1------------|-----------------------|-------3--1------------|
---------------3-------|-----------------6--7--|---------------3-------|
--1-----------------4--|--6----6----4----------|--1-----------------4--|


-----------------------|-----------------------|-----------------------|
-----------------------|-------3--1------------|-----------------------|
-----------------6--7--|---------------3-------|-----------------6--7--|
--6----6----4----------|--1-----------------4--|--6----6----4----------|


-----------------------|-----------------------|--------------------------|
-------3--1------------|-----------------------|--------------------------|
---------------3-------|-----------------6--7--|--------------------------|
--1-----------------4--|--6----6----4----------|--1--1--1--1--1--1--1--1--|


--------------------------|--------------------------|
--------------------------|--3--3--3--3--3--3--3--3--|
--1--1--1--1--1--1--1--1--|--------------------------|
--------------------------|--------------------------|


--------------------------|--------------------------|
--------------------------|--------------------------|
--1--1--1--1--1--1--1--1--|--------------------------|
--------------------------|--1--1--1--1--1--1--1--1--|


--------------------------|--------------------------|
--------------------------|--3--3--3--3--3--3--3--3--|
--1--1--1--1--1--1--1--1--|--------------------------|
--------------------------|--------------------------|


--------------------------||
--------------------------||
--1--1--1--1--1--1--1--1--||

Almost there ...

Sign in to get your own page with links to favourite songs and more. You are just one click away...

Login with Facebook Login with Google