Log in

One click and you are in

Login with Facebook Login with Google

Why sign up and log in

Guitar Tabs Explorer
Pavement bass tabs for Elevate me later

Bass tabs

ELEVATE ME LATER - Pavement
----------------------------------------------------------------------------

Tabbed By : Stephen Healy
e-mail: steeeeev13@hotmail.com
Tuning: Standard tuning EADG

Intro / break
G|------------------------------------------------------------------------|
D|------------------------------------------------------------------------|
A|---------------------------------3-3-3-3-3-3-3-3-5-5-5-5-8-8-8-8--------|
E|-3-3-3-3-3-3-3-3-5-5-5-5-5-5-5-5----------------------------------------|


Verse / Chorus
G|------------------------------------------------------------------------|
D|------------------------------------------------------------------------|
A|---------------------------------3-3-3-3-3-3-3-3-5-5-5-5-5-5-5-5--------|
E|-3-3-3-3-3-3-3-3-5-5-5-5-5-5-5-5----------------------------------------|


Bridge (verse before chorus, follow usual verse but then descend to this)
G|------------------------------------------------------------------------|
D|------------------------------------------------------------------------|
A|-3-3-3-3-3-3-3-3-5-5-5-5-5-5-5-5----------------------------------------|
E|------------------------------------------------------------------------|


| / slide up
| \ slide down
| h hammer-on
| p pull-off
| ~ vibrato
| + harmonic
| x Mute note

Almost there ...

Sign in to get your own page with links to favourite songs and more. You are just one click away...

Login with Facebook Login with Google