Samba Em Prelúdio by Paulinho Nogueira

Samba Em Prelúdio tab by Paulinho Nogueira

Guitar tabs

Tuning: Standard (E A D G B E)

Intro:
e|-------------------------------------------------------------------------------------------|
B|---5--5--5--5--5--5------8------8\--------8--------5--5--5--5--5--5------8-----8---------8-|
G|---5--5--5--5--5--5------7------7\--------7--------5--5--5--5--5--5------7-----7---------7-|
D|---5--5--5--5--5--5------6------6\--------6--------5--5--5--5--5--5------6-----6---------6-|
A|---0-----------0-----------------------------------0-----------0---------------------------|
E|---------------------------0-----------0-----------------------------------0-----------0---|

Verse 1:
e|------------0--------------------------------------------------------------------------------|
B|-------1-------------6----------6--------5------------0-----------6------------------------5-|
G|-2------------------5-------------------------------------7--------------------6-------------|
D|----------------------------------------------6-----------------------6------------7---------|
A|---0-----------0-----------0-----------0-----------------------------------------------------|
E|---------------------------------------------------7-----------7-----------7-----------7-----|

e|------------------------------------------0-----------------------0------------------------|
B|---------------------3/6----------6------------------------1-----------------------------3-|
G|-0------3------------------------6--------------------2-----------------------2------------|
D|--------------------------------5------------3------------------------3----------3---------|
A|---1-----------1-----------0-----------0-----------5-----------5-----------5-----------3---|
E|-------------------------------------------------------------------------------------------|

e|-------------------0-----------------------------------------------------------------------|
B|-----------1------------------------------3-----------------------1------3---------------1-|
G|--------2----------------------4------------------------2---------------2------------------|
D|-3---------------------3----------3-----------2------------------------2--------2----------|
A|---2-----------0-----------------------------------0-----------0-----------0-----------0---|
E|---------------------------4-----------4---------------------------------------------------|

e|-----------------------------------------------------------------------------------------0-|
B|-------------------1-----------------------0------------------------------------1----------|
G|-----------2-------------------2------------------------------------2----------2-----------|
D|-1-----4----------------1--------1-------------0--------3---------------------1------------|
A|-------------------------------------------------------------------------------------------|
E|---2-----------2-----------2-----------2-----------1-----------1-----------0-----------0---|

Verse 2:
e|---------------0------0----------------------0-------------------------0-------------------0-|
B|-----------1---------5---------------------------------0--------------5----------------------|
G|-------2------------5------------5------------------------7----------7-------------7---------|
D|-2---------------------------------------------6--------------------6----------6-------------|
A|---0-----------0-----------0-----------0-----------------------------------------------------|
E|---------------------------------------------------7-----------7-----------7-----------7-----|

e|--------------------------------------------0----------------------0--------------------------|
B|--------------------3/6-----------6-----------------------1---------------------------------3-|
G|-0-------3-----------------------6---------------------2-----------------------2--------------|
D|--------------------------------5--------------3----------------------3-----------3-----------|
A|---1-----------1-----------0-----------0-----------5-----------5-----------5-----------3------|
E|----------------------------------------------------------------------------------------------|

e|-------------------0------------------------------------------------------------------|
B|------------1----------------------------3--------------1------3----------1---------3-|
G|--------2---------------------4---------------------2--------------0------------------|
D|-3---------------------3--------3------------2----------------------------------------|
A|----2----------0--------------------------------0----------0----------0----------0----|
E|--------------------------4----------4------------------------------------------------|

Bridge:
e|---------------------------------------------------------------0---------------------0-|
B|--4-----4----4--4--3--1----3-------------1p0----------------1--------------3-----------|
G|-3----------3--------------2--------2---------2----------2----------2----------1-------|
D|--------------------------------2---------------------2-------------3----------0-------|
A|-----3---------------------2---------------------0---------------------2---------------|
E|----------------1---------------------0---------------------0---------------------0----|

Verse 3:
e|-8---------------8---------------7---------------5---5-------------------5---4--------0----1-|
B|----------8-----------8------------------5-----5-----------3----------3----------3-----------|
G|------------9-------9-----0-----------5-----5-----------4-----4-----4----------4-------------|
D|--------7---------------------------5----------------3-----------3-----------2-----------2---|
A|-----0-----------0-----------0-----------0---------------------------------------------------|
E|---------------------------------------------------------------------------------------------|

e|---3----3----3--3--5---6------6----------5---3-----3-------1-------------------1-------|
B|-3----------3----------------3--------------------------3--------3----------3------3/6-|
G|----------------------------5-----0-------------------2-------2-----2----2-------------|
D|-------------------------------------------------0---------0---------------------------|
A|-----1----------1----------0----------0-------------------------------3----------3-----|
E|---------------------------------------------------------------------------------------|

e|-------------13--------------12------------10-------10---8----------8--------8------8h10-|
B|-------10--------------10---------9---------------------8--------8----------8------------|
G|--10------10-------10--------------------------9-------9------9------------9-------------|
D|-----9----------9------------------------------------------------------------------------|
A|-------------------------------------------------0---------0----------0----------0-------|
E|---------------------------0----------0--------------------------------------------------|

e|---11---11---11-11--10-8------11--11-----7--8-------10-10--10-10---8--7-----10--10------|
B|--10--------10---------------10---10---------------9------9----------------9----9-----9-|
G|-8---------8----------------8---------------------7-----------------------7-----------7-|
D|----------------------------------------------------------------------------------------|
A|-----8----------8----------8----------8----------7------------7----------7----------7---|
E|----------------------------------------------------------------------------------------|

Verse 4:
e|-8---------8---------------------7--------7----5--5h7--4------------0------------0------|
B|----------8---------8-----------8---------8----0--------------6-----------6-----------6-|
G|---------9----------9----------8----------8----7-----------------7-----------7----------|
D|--------7-----------7-------------------------------------------------------------------|
A|-----0----------0----------8----------8-------------------------------------------------|
E|-----------------------------------------------0-----------0-----------0-----------0----|

e|----3---3--3--3--5--6------------6-----------5--3---------3---------3-----1--------1--------------|
B|---3----------------------------7----7-------------------3----------3----3-------3--------------3-|
G|--3----------------------------6-----6------------------3---------------2------2-------------2----|
D|-5----------------------------5------5---------------0-----------0-----------0--------------------|
A|-----------------------------0-----------0-----------------------------------------------3--------|
E|-----3-----------3--------------------------------------------------------------------------------|

Verse 5:
e|-----------------13--------------12--------10----------10----8---------------------8-------|
B|-----------10------------10----------9----------------------8---------8-----------8--------|
G|-10-----10----10-----10-------------------------9----------9----------9----------9---------|
D|-----9-----------9-------------------------------------------------------------------------|
A|----------------------------------------------------0------------0-----------0-----------0-|
E|------------------------------0----------0-------------------------------------------------|

e|-10h11---11-----11-----11-----10-8h10-------10----------8/------5-|
B|--------10------------10--------------------9---10------6/------5-|
G|-------8-------------8---------------------7------------7/------5-|
D|------------------------------------------------------------------|
A|---------------------------8------------------------------------0-|
E|-------------8-------------------------7------------0-------------|

Bridge:
e|----------------------------------------------------------------------------------|
B|--5--5--5--5-----5--------5--5--5--5-----6------6--6--6--6-----6--------5-------5-|
G|--5--5--5--5-----5--------5--5--5--5-----7------7--7--7--7-----7--------7-------7-|
D|--2--2--2--2-----4--------4--4--4--4-----7------7--7--7--7-----6--------6-------6-|
A|--------0-----------0-----------0-------------------------------------------------|
E|--------------------------------------------0---------0-----------0-----------0---|

Verse 6:
e|---------8-------------------------7-----------5--5----------------------4-----------------|
B|---------------------5--6-------------------5----------------0------------------6----------|
G|------------5-------------------------------------------------------7----------------7-----|
D|-7-------------------------------------------------------6---------------------------------|
A|-----0-----------0-----------0-----------0-------------------------------------------------|
E|-----------------------------------------------------7-----------7-----------7-----------7-|

e|-0-1-3--3--3----3--5--6---------6----------5---3--------------------------------0----------0-|
B|-------------------3-----------6---------------3----------6-------------1------------------3-|
G|-----------3------------------6----6---------------------5----------2------------------------|
D|-----------------------------5----------------------0-----------0-----------0----------------|
A|----------------------------0-----------0-----------------------------------------------3----|
E|-----0----------0----------------------------------------------------------------------------|

Verse 7:
e|-13------------------------------12----------10----10---------------------8-----------------|
B|--------------------------------------------------------------------------5-----------------|
G|-------------------------------------9--------------------7------------------------7--------|
D|---------12--------------10-------------------------------------------7---------------------|
A|-------------8------12---------------------------------------7------------------------------|
E|-----7-----------7-----------0-----------0------------5-----------5-----------5-----------5-|

e|-8-10----11--11--11--11--10--8---11-----8-------7--8-10-----10-----10--10---8---7------10-----------|
B|--------10---------------10---------------------------------------------------9---------------------|
G|-----------------10--------------------------------------7-----10-----------------------------------|
D|---------------------------------------------------------------------------------------------10---9-|
A|-------8-------------8-----------8-----------8-----------7-------------7-----------7----------------|
E|----------------------------------------------------------------------------------------------------|

Verse 8:
e|---------8-----------------------7-------------5--5----------------------4-----------------|
B|---------------------5--6-------------------5----------------0---------------------6-------|
G|------------5-------------------------------------------------------7----------------------|
D|-7------------------------------------7------------------6---------------------------------|
A|-----0-----------0-----------0-----------0-------------------------------------------------|
E|-----------------------------------------------------7-----------7-----------7-----------7-|

e|-0-1-3-----3-----3--3--5-----6------6-----------5----3-------------------------------0----------|
B|--------------------------3-----------6-------------3--------6---------------1----------------0-|
G|--------0-----3--------------------------6------------------5-----------2---------------------0-|
D|--------------------------------------------------------0-----------0-----------0---------------|
A|--------------------------------0-----------0-----------------------------------------------3---|
E|--------0-----------0---------------------------------------------------------------------------|

Verse 9:
e|-13------------------------------12----------10----10---------------------8-----------------|
B|--------------------------------------------------------------------------5-----------------|
G|-------------------------------------9--------------------7------------------------7--------|
D|---------12--------------10-------------------------------------------7---------------------|
A|-------------8------12---------------------------------------7------------------------------|
E|-----7-----------7-----------0-----------0------------5-----------5-----------5-----------5-|

e|--8--10--11---11---11---11---10---8------8/10-------8\5---5--------------0------------------0--------0-|
B|-------------------------------------------------------------------0--------0--------------5---------5-|
G|----------------------------------------------------------------------5--------5----------5----------5-|
D|-7--9---10---10---10---10---9----7------7/9---------------------5-----------------5--4---4-----------4-|
A|------------------------8------------------------------------0-----------0-----------0-----------0-----|
E|---------8----------------------------0-----------0----------------------------------------------------|

Final:
Sem você eu não sou ninguém.
e|-------------------------------------------------------------------------------------0-|
B|-4----4----1----1----3----3------0---------------0-------0-----0-----0-----0---------0-|
G|-3----3----2----2----2----2------1--1--1---------12\9----12\9--12\9--12\9--12\9------0-|
D|-5----5----1----1----4----4--0------------0------10\7----10\7--10\7--10\7--10\7--------|
A|-3----3--------------2----2------------------0-----------------------0-----------------|
E|-----------1----1----------------0-----------------------0------------------------0----|

Sem você meu amor eu não sou, ninguém.
e|-------------------------------------------3-|
B|-4--4----4----4----3-----3-----3-----3-----5-|
G|-5--5----5----5----4-----4-----4-----4-----4-|
D|-4--4----4----4----3-----3-----3-----3-----5-|
A|-3--3----3----3----2-----2-----2-----2-----0-|
E|---------------------------------------------|

Outro:
e|-3------3--------3--3--------3\---------3\---3\--3----3\---------3\--3\------3---3--------3--3--------3-|
B|-5------5--------5--5--------5\---------5\---5\--5----5\---------5\--5\------5---5--------5--5-------5--|
G|-4------4--------4--4--------4\---------4\---4\--4----4\---------4\--4\------4---4--------4--4------4---|
D|-5------5--------5--5--------5\---------5\---5\--5----5\---------5\--5\------5---5--------5--5-----5----|
A|-0-----------------------0-----------------------0-----------------------0------------0-----------0-----|
E|-------------0-----------------------0-----------------------0------------------------------------------|

************************************

| h Hammer-on
| p Pull-off
| / Slide up
| \ Slide down

************************************

Find guitar tabs and chords

A B C D E F G H I J K L M N O P Q R S T U V W X Y Z #