Log in

One click and you are in

Login with Facebook Login with Google

Why sign up and log in

Guitar Tabs Explorer
Pastorius Jaco bass tabs for Palladium

Bass tabs

pastorius_jaco-palladium.btab

Basstab by Jan Bjorklund, Finland;
jani_bjorklund@yahoo.se
You are welcome to request for basstabs!
Bienvenidos a pedirme transcripciones para el bajo!
Fingering and positions as suggested by TablEdit.

TablEdited by Jan Bjorklund

Tuning : E A D G 	Time Signature: 4/4

 |    |    |    |     |    |    |    |
|----------------------------------|----------------------------------|
|-3-----3--------------------------|----------------------------------|
|----------------------------------|-----------------4-------1--------|
|---------------1------------------|---------2------------------------|

 |    |    |    |     |    |    |    |
|----------------------------------|----------------------------------|
|-3-----3--------------------------|----------------------------------|
|----------------------------------|-----------------4-------1--------|
|---------------1------------------|---------2------------------------|

 |    |    |    |     |    |    |    |
|----------------------------------|----------------------------------|
|-3-----3--------------------------|---------2------------------------|
|----------------------------------|-----------------4-------3--------|
|---------------1------------------|----------------------------------|

 |    |    |    |     |    |    |    |
|----------------------------------|----------------------------------|
|-3-----3--------------------------|---------2------------------------|
|----------------------------------|-----------------4-------3--------|
|---------------1------------------|----------------------------------|

 |    |    |    |     |    |    |    |
|----------------------------------|----------------------------------|
|-3-----3--------------------------|----------------------------------|
|----------------------------------|----------------------------------|
|---------------1------------------|----------------------------------|

 |    |    |    |     |    |    |    |
|---------------9---9--------------|---------------9---9--------------|
|-----------7---------7------------|-----------7---------7------------|
|-----------------------0---0-7-0--|-----------------------0---0-7-0--|
|-10--1010-------------------------|-10--1010-------------------------|

 |    |    |    |     |    |    |    |
|---------------9---9--------------|---------------9---9--------------|
|-----------7---------7------------|-----------7---------7------------|
|-----------------------0---0-7-0--|-----------------------0---0-7-0--|
|-10--1010-------------------------|-10--1010-------------------------|

 |    |    |    |     |    |    |    |
|---------------9---9--------------|---------------9---9--------------|
|-----------7---------7------------|-----------7---------7------------|
|-----------------------0---0-7-0--|-----------------------0---0-7-0--|
|-10--1010-------------------------|-10--1010-------------------------|

 |    |    |    |     |    |    |    |
|---------------9---9--------------|---------------9---9--------------|
|-----------7---------7------------|-----------7---------7------------|
|-----------------------0---0-7-0--|-----------------------0---0-7-0--|
|-10--1010-------------------------|-10--1010-------------------------|

 |    |    |    |     |    |    |    |
|---------------9---9--------------|---------------9---9--------------|
|-----------7---------7------------|-----------7---------7------------|
|-----------------------0---0-7-0--|-----------------------0---0-7-0--|
|-10--1010-------------------------|-10--1010-------------------------|

 |    |    |    |     |    |    |    |
|---------------9---9--------------|---------------9---9--------------|
|-----------7---------7------------|-----------7---------7------------|
|-----------------------0---0-7-0--|-----------------------0---0-7-0--|
|-10--1010-------------------------|-10--1010-------------------------|

 |    |    |    |     |    |    |    |
|---------------9---9--------------|---------------9---9--------------|
|-----------7---------7------------|-----------7---------7------------|
|-----------------------0---0-7-0--|-----------------------0---0-7-0--|
|-10--1010-------------------------|-10--1010-------------------------|

 |    |    |    |     |    |    |    |
|-------------8-9---9--------------|---------------9---9--------------|
|-----------7---------7------------|-----------7---------7------------|
|-----------------------0---0-7-0--|-----------------------0---0-7-0--|
|-10--1010-------------------------|-10--1010-------------------------|

 |    |    |    |     |    |    |    |
|-------------1112-----------------|---------------11-----------------|
|----------------------------------|----------------------------------|
|-----------13----------0---0---0--|-----------12----------0---0---0--|
|-10--1010--------------------12---|-10--1010--------------------12---|

 |    |    |    |     |    |    |    |
|---------------9---9--------------|---------------9---9--------------|
|-----------7---------7------------|-----------7---------7------------|
|-----------------------0---0-7-0--|-----------------------0---0-7-0--|
|-10--1010-------------------------|-10--1010-------------------------|

 |    |    |    |     |    |    |    |
|-------------8-9---9--------------|---------------9---9--------------|
|-----------7---------7------------|-----------7---------7------------|
|-----------------------0---0-7-0--|-----------------------0---0-7-0--|
|-10--1010-------------------------|-10--1010-------------------------|

 |    |    |    |     |    |    |    |
|---------------9---9--------------|----------------------------------|
|-----------7---------7------------|---------------3---3-3------------|
|-----------------------0---0-7-0--|---------3-3-----------3---3------|
|-10--1010-------------------------|-1-----1---------------------1----|

 |    |    |    |     |    |    |    |
|----------------------------------|----------------------------------|
|---------------3---3-3------------|---------------3---3-3------------|
|---------3-3-----------3---3------|---------3-3-----------3---3------|
|-------1---------------------1----|-1-----1---------------------1----|

 |    |    |    |     |    |    |    |
|----------------------------------|----------------------------------|
|---------------3---3-3------------|---------------3---3-3------------|
|---------3-3-----------3---3------|---------3-3-----------3---3------|
|-------1---------------------1----|-1-----1---------------------1----|

 |    |    |    |     |    |    |    |
|----------------------------------|----------------------------------|
|---------------3---3-3------------|---------------3---3-3------------|
|---------3-3-----------3---3------|---------3-3-----------3---3------|
|-------1---------------------1----|-1-----1---------------------1----|

 |    |    |    |     |    |    |    |
|----------------------------------|----------------------------------|
|---------------3---3-3------------|---------------3---3-3------------|
|---------3-3-----------3---3------|---------3-3-----------3---3------|
|-------1---------------------1----|-1-----1---------------------1----|

 |    |    |    |     |    |    |    |
|----------------------------------|----------------------------------|
|---------------3---3-3------------|---------------3---3-3------------|
|---------3-3-----------3---3------|---------3-3-----------3---3------|
|-------1---------------------1----|-1-----1---------------------1----|

 |    |    |    |     |    |    |    |
|----------------------------------|---------------9---9--------------|
|----------------------------------|-----------7---------7------------|
|---------3-3-0---1-------------0--|-----------------------0---0-7-0--|
|-------1--------------------------|-10--1010-------------------------|

 |    |    |    |     |    |    |    |
|---------------9---9--------------|---------------9---9--------------|
|-----------7---------7------------|-----------7---------7------------|
|-----------------------0---0-7-0--|-----------------------0---0-7-0--|
|-10--1010-------------------------|-10--1010-------------------------|

 |    |    |    |     |    |    |    |
|---------------9---9--------------|---------------9---9--------------|
|-----------7---------7------------|-----------7---------7------------|
|-----------------------0---0-7-0--|-----------------------0---0-7-0--|
|-10--1010-------------------------|-10--1010-------------------------|

 |    |    |    |     |    |    |    |
|---------------9---9--------------|---------------9---9--------------|
|-----------7---------7------------|-----------7---------7------------|
|-----------------------0---0-7-0--|-----------------------0---0-7-0--|
|-10--1010-------------------------|-10--1010-------------------------|

 |    |    |    |     |    |    |    |
|---------------9---9--------------|---------------9---9--------------|
|-----------7---------7------------|-----------7---------7------------|
|-----------------------0---0-7-0--|-----------------------0---0-7-0--|
|-10--1010-------------------------|-10--1010-------------------------|

 |    |    |    |     |    |    |    |
|---------------9---9--------------|---------------9---9--------------|
|-----------7---------7------------|-----------7---------7------------|
|-----------------------0---0-7-0--|-----------------------0---0-7-0--|
|-10--1010-------------------------|-10--1010-------------------------|

 |    |    |    |     |    |    |    |
|---------------9---9--------------|---------------9---9--------------|
|-----------7---------7------------|-----------7---------7------------|
|-----------------------0---0-7-0--|-----------------------0---0-7-0--|
|-10--1010-------------------------|-10--1010-------------------------|

 |    |    |    |     |    |    |    |
|---------------9---9--------------|---------------9---9--------------|
|-----------7---------7------------|-----------7---------7------------|
|-----------------------0---0-7-0--|-----------------------0---0-7-0--|
|-10--1010-------------------------|-10--1010-------------------------|

 |    |    |    |     |    |    |    |
|---------------9---9--------------|---------------9---9--------------|
|-----------7---------7------------|-----------7---------7------------|
|-----------------------0---0-7-0--|-----------------------0---0-7-0--|
|-10--1010-------------------------|-10--1010-------------------------|

 |    |    |    |     |    |    |    |
|---------------9---9--------------|---------------9---9--------------|
|-----------7---------7------------|-----------7---------7------------|
|-----------------------0---0-7-0--|-----------------------0---0-7-0--|
|-10--1010-------------------------|-10--1010-------------------------|

 |    |    |    |     |    |    |    |
|-------------8-9---9--------------|---------------9---9--------------|
|-----------7---------7------------|-----------7---------7------------|
|-----------------------0---0-7-0--|-----------------------0---0-7-0--|
|-10--1010-------------------------|-10--1010-------------------------|

 |    |    |    |     |    |    |    |
|-------------1112-----------------|---------------11-----------------|
|----------------------------------|----------------------------------|
|-----------13----------0---0---0--|-----------12----------0---0---0--|
|-10--1010--------------------12---|-10--1010--------------------12---|

 |    |    |    |     |    |    |    |
|---------------9---9--------------|---------------9---9--------------|
|-----------7---------7------------|-----------7---------7------------|
|-----------------------0---0-7-0--|-----------------------0---0-7-0--|
|-10--1010-------------------------|-10--1010-------------------------|

 |    |    |    |     |    |    |    |
|-------------8-9---9--------------|---------------9---9--------------|
|-----------7---------7------------|-----------7---------7------------|
|-----------------------0---0-7-0--|-----------------------0---0-7-0--|
|-10--1010-------------------------|-10--1010-------------------------|

 |    |    |    |     |    |    |    |
|---------------9---9--------------|----------------------------------|
|-----------7---------7------------|---------------3---3-3------------|
|-----------------------0---0-7-0--|---------3-3-----------3---3------|
|-10--1010-------------------------|-1-----1---------------------1----|

 |    |    |    |     |    |    |    |
|----------------------------------|----------------------------------|
|---------------3---3-3------------|---------------3---3-3------------|
|---------3-3-----------3---3------|---------3-3-----------3---3------|
|-------1---------------------1----|-1-----1---------------------1----|

 |    |    |    |     |    |    |    |
|----------------------------------|----------------------------------|
|---------------3---3-3------------|---------------3---3-3------------|
|---------3-3-----------3---3------|---------3-3-----------3---3------|
|-------1---------------------1----|-1-----1---------------------1----|

 |    |    |    |     |    |    |    |
|----------------------------------|----------------------------------|
|---------------3---3-3------------|---------------3---3-3------------|
|---------3-3-----------3---3------|---------3-3-----------3---3------|
|-------1---------------------1----|-1-----1---------------------1----|

 |    |    |    |     |    |    |    |
|----------------------------------|----------------------------------|
|---------------3---3-3------------|---------------3---3-3------------|
|---------3-3-----------3---3------|---------3-3-----------3---3------|
|-------1---------------------1----|-1-----1---------------------1----|

 |    |    |    |     |    |    |    |
|----------------------------------|----------------------------------|
|---------------3---3-3------------|---------------3---3-3------------|
|---------3-3-----------3---3------|---------3-3-----------3---3------|
|-------1---------------------1----|-1-----1---------------------1----|

 |    |    |    |     |    |    |    |
|----------------------------------|---------------9---9--------------|
|----------------------------------|-----------7---------7------------|
|---------3-3-0---1-------------0--|-----------------------0---0-7-0--|
|-------1--------------------------|-10--1010-------------------------|

 |    |    |    |     |    |    |    |
|---------------9---9--------------|---------------9---9--------------|
|-----------7---------7------------|-----------7---------7------------|
|-----------------------0---0-7-0--|-----------------------0---0-7-0--|
|-10--1010-------------------------|-10--1010-------------------------|

 |    |    |    |     |    |    |    |
|---------------9---9--------------|-------2---2----------------------|
|-----------7---------7------------|-0-----------0-----------4---0----|
|-----------------------0---0-7-0--|---------------2-------2---2------|
|-10--1010-------------------------|----------------------------------|

 |    |    |    |     |    |    |    |
|----------------------------------|----------------------------------|
|-2-----2--------------------------|-0-----------------------4---0----|
|-----------2-2-0-------2---2-4----|-------4---4-2---2-----2---2------|
|----------------------------------|----------------------------------|

 |    |    |    |     |    |    |    |
|----------------------------------|----------------------------------|
|-2-----2--------------------------|-0-----------------------4---0----|
|-----------2-2-0-------2---2-3----|-------3---3-2---2-----2---2------|
|----------------------------------|----------------------------------|

 |    |    |    |     |    |    |    |
|----------------------------------|-------------------------3---0----|
|-2-----2--------------------------|-0---------------1-----1---1------|
|-----------2-2-0-------2---2-4----|-------4---4-2--------------------|
|----------------------------------|----------------------------------|

 |    |    |    |     |    |    |    |
|-1-----1-------------------1------|----------------------------------|
|-----------1-1---------------4----|-4-----------------------4---0----|
|---------------3-4-----4----------|-------4---4-1---------2---2------|
|----------------------------------|----------------------------------|

 |    |    |    |     |    |    |    |
|----------------------------------|----------------------------------|
|-2-----2--------------------------|-0-----------------------4---0----|
|-----------2-2-0-------2---2-4----|-------4---4-2---2-----2---2------|
|----------------------------------|----------------------------------|

 |    |    |    |     |    |    |    |
|----------------------------------|----------------------------------|
|-2-----2--------------------------|-0-----------------------4---0----|
|-----------2-2-0-------2---2-3----|-------3---3-2---2-----2---2------|
|----------------------------------|----------------------------------|

 |    |    |    |     |    |    |    |
|----------------------------------|-------------------------3---0----|
|-2-----2--------------------------|-0---------------1-----1---1------|
|-----------2-2-0-------2---2-4----|-------4---4-2--------------------|
|----------------------------------|----------------------------------|

 |    |    |    |     |    |    |    |
|-1-----1-------------------1------|----------------------------------|
|-----------1-1---------------4----|-4-----------------------4---0----|
|---------------3-4-----4----------|-------4---4-1---------2---2------|
|----------------------------------|----------------------------------|

 |    |    |    |     |    |    |    |
|----------------------------------|----------------------------------|
|-2-----2--------------------------|-0-----------------------4---0----|
|-----------2-2-0-------2---2-4----|-------4---4-2---2-----2---2------|
|----------------------------------|----------------------------------|

 |    |    |    |     |    |    |    |
|----------------------------------|----------------------------------|
|-2-----2--------------------------|-0-----------------------4---0----|
|-----------2-2-0-------2---2-3----|-------3---3-2---2-----2---2------|
|----------------------------------|----------------------------------|

 |    |    |    |     |    |    |    |
|----------------------------------|-------------------------3---0----|
|-2-----2--------------------------|-0---------------1-----1---1------|
|-----------2-2-0-------2---2-4----|-------4---4-2--------------------|
|----------------------------------|----------------------------------|

 |    |    |    |     |    |    |    |
|-1-----1-------------------1------|----------------------------------|
|-----------1-1---------------4----|-4-----------------------4---0----|
|---------------3-4-----4----------|-------4---4-1---------2---2------|
|----------------------------------|----------------------------------|

 |    |    |    |     |    |    |    |
|----------------------------------|----------------------------------|
|-2-----2--------------------------|-0-----------------------4---0----|
|-----------2-2-0-------2---2-4----|-------4---4-2---2-----2---2------|
|----------------------------------|----------------------------------|

 |    |    |    |     |    |    |    |
|----------------------------------|----------------------------------|
|-2-----2--------------------------|-0-----------------------4---0----|
|-----------2-2-0-------2---2-3----|-------3---3-2---2-----2---2------|
|----------------------------------|----------------------------------|

 |    |    |    |     |    |    |    |
|----------------------------------|-------------------------3---0----|
|-2-----2--------------------------|-0---------------1-----1---1------|
|-----------2-2-0-------2---2-4----|-------4---4-2--------------------|
|----------------------------------|----------------------------------|

 |    |    |    |     |    |    |    |
|-1-----1-------------------1------|----------------------------------|
|-----------1-1---------------4----|-4---------------3-----3----------|
|---------------3-4-----4----------|-------4---4-1--------------------|
|----------------------------------|-------------------------------1--|

 |    |    |    |     |    |    |    |
|----------------------------------|----------------------------------|
|----------------------------------|-----------------3-----3----------|
|----------------------------------|-4-------1------------------------|
|-------------------------2--------|-------------------------------1--|

 |    |    |    |     |    |    |    |
|----------------------------------|----------------------------------|
|----------------------------------|-----------------3-----3----------|
|----------------------------------|-4-------1------------------------|
|-------------------------2--------|-------------------------------1--|

 |    |    |    |     |    |    |    |
|----------------------------------|----------------------------------|
|-------------------------2--------|-----------------3-----3----------|
|----------------------------------|-4-------3------------------------|
|----------------------------------|-------------------------------1--|

 |    |    |    |     |    |    |    |
|----------------------------------|----------------------------------|
|-------------------------2--------|-----------------3-----3----------|
|----------------------------------|-4-------3------------------------|
|----------------------------------|-------------------------------1--|

Almost there ...

Sign in to get your own page with links to favourite songs and more. You are just one click away...

Login with Facebook Login with Google