Log in

One click and you are in

Login with Facebook Login with Google

Why sign up and log in

Guitar Tabs Explorer
Pastorius Jaco bass tabs for Come on come over

Bass tabs

COME ON, COME OVER by J. Pastorius & B. Herzog


Intro lick
        VERSE 1
 w q s s s s  s E+h s s s s  s E+h s s s s 1 s E+h s s s s
+--------------+--8---------------+-----------------+-8---------------+
|-R-R-8-8-9-10-|*---10------------|-------8-8-9-10-*|---10------------|
|--------------|*--------7-8-9-10-|----------------*|--------7-8-9-10-|
+--------------+------------------+-8-8-------------+-----------------+

      CHORUS
 q q q e e  e s s s s s s s s s s s s s s  e s s s s s s s s s s s s s s
+-----------+-------5---4-4-----------------+---7-----4---------------------+
|---R-R-----|---7-7---7-----7-7-------------|-----X-7---X-X-7-7-------------|
|-------3-4-|-5-----------------2-2-3-X-4-4/|-5-----------------2-2-3-X-4-4/|
+-8---------+-------------------------------+-------------------------------+
      A                B

 e s s s s s s s s s s s s s s  e s s s s s s s s s s s s s s
+-------5---4-4-----------------+---7-----4---------------------+
|---7-7---7-----7-7-------------|-----X-7---R-X-4-4-5-5-6-6-7-7-|
|-5-----------------2-2-3-X-4-4/|-5-----------------------------|
+-------------------------------+-------------------------------+
A                C

 e s s s s s s s s s s s s s s  e s s s s s s s s s s s s s s
+-------5---4-4-----------------+---7-----4---------------------+
|---7-7---7-----7-7-------------|-----X-7---X-X-7-7-------------|
|-5-----------------2-2-3-X-4-4/|-5-----------------2-2-3-X-4-4/|
+-------------------------------+-------------------------------+
A                B

 e s s s s s s s s s s s s s s  e s s s s s s s s s s s s s s
+-------5---4-4-----------------+---------8----7-7--------------------+
|---7-7---7-----7-7-------------|---10-10---10-----10-10-7-7-8-8-9-10-|
|-5-----------------5-5-6-6-7-7-|-8-----------------------------------|
+-------------------------------+-------------------------------------+
D                E

VERSE 2
  s E+h s s s s  s E+h s s s s 9
+--8---------------+-----------------+
|*---10------------|-------8-8-9-10-*|
|*--------7-8-9-10-|----------------*|
+------------------+-8-8-------------+


The second chorus is very similar to the first, and consists of measures:
AB
AC
AB
A, followed by:
 e s s s s s s e s s s s s s
+-----------------------------+
|-----------------------------|
|-5---------------2-2-3-3-4-4-|
+---2-2-3-3-4-4-5-------------+

AB
AC
AB
DE

"X" indicates a dead note.

As you can see, the line as written is fairly repetitious. Hopefully, I
haven't made too many mistakes in representing Hubbard's line.

Almost there ...

Sign in to get your own page with links to favourite songs and more. You are just one click away...

Login with Facebook Login with Google