Log in

One click and you are in

Login with Facebook Login with Google

Why sign up and log in

Guitar Tabs Explorer
Pastorius Jaco bass tabs for Chicken

Bass tabs

p/pastorius_jaco/chicken.btab

Basstab by Jan Bjorklund, Finland;
jani_bjorklund@yahoo.se
You are welcome to request for basstabs!
Bienvenidos a pedirme transcripciones para el bajo!
Fingering and positions as suggested by TablEdit.

TablEdited by Jan Bjorklund

Tuning : E A D G 	Time Signature: 4/4

 |    |    |    |    |    |    |    |
|--------------------------------|--------------------------------|
|------------------------5---8---|------------------------5---8---|
|--------5-5---6---6-8-----------|--------5-5-5-6---6-8-----------|
|6-------------------------------|6-------------------------------|

 |    |    |    |    |    |    |    |
|--------------------------------|--------------------------------|
|------------------------5---8---|------------------------5---8---|
|--------5-5---6---6-8-----------|--------5-5---6---6-8-5---------|
|6-------------------------------|6-------------------------------|

 |    |    |    |    |    |    |    |
|--------------------------------|--------------------------------|
|------------------------5---8---|--------------------8-----------|
|--------5-5---6---6-8-5---------|--------5---5---8-------7---6---|
|6-6---6-------------------------|6-----6-------------------------|

 |    |    |    |    |    |    |    |
|--------------------------------|----8---6---5-------------------|
|--------5-6---8-----------------|--------------8-----------6-5---|
|------------------------5---6---|------------------6---8---------|
|------------------6---8---------|--------------------------------|

 |    |    |    |    |    |    |    |
|--------------------------------|--------------------------------|
|4-------------------------------|----------------------5---------|
|--5-----------------------------|----------------5-5-------5-3-0-|
|----5---3-3-2---0-0---1---1-2-0-|3-----3-5-5---0-----------------|

 |    |    |    |    |    |    |    |
|--------5---5-3-----------------|--------------------------------|
|----------------------3---------|----2-2-3-4---5-----------------|
|3-----3-----------5-------------|3-3-------------------------2-2-|
|--------------------------------|----------------3-----3h5-5-----|

 |    |    |    |    |    |    |    |
|------------------------3-3-5---|3-1-----------------------------|
|--------2-3---4-3-3-5-----------|------3---1---------------------|
|3-----3-------------------------|--------------4---1-------------|
|--------------------------------|--------------------4-----------|

 |    |    |    |    |    |    |    |
|--------------------------------|--------------------------------|
|------------------------5---8---|------------------------5---8---|
|--------5-5---6---6-8-----------|--------5-5---6---6-8-----------|
|6-------------------------------|6-------------------------------|

 |    |    |    |    |    |    |    |
|--------------------------------|--------------------------------|
|------------------------5---8---|------------------------5---8---|
|--------5-5---6---6-8-5---------|--------5-5---6---5-8-----------|
|6p5h6---------------------------|6-----6-------------------------|

 |    |    |    |    |    |    |    |
|--------------------------------|--------------------------------|
|--------------------------------|----------1-3-4-----------------|
|1---1-----1-----------------3---|1---1-----------------------3---|
|--------------3---3-2-2-1-------|------------------3-2-2-1-1-----|

 |    |    |    |    |    |    |    |
|--------------------------------|----3-0-----5-------6-----------|
|--------------------------------|--------------5-----------------|
|1---1-----------------------3---|1-1-----3-3-----4-4---4-5---6---|
|----------3---1h3-3-2---1-------|--------------------------------|

 |    |    |    |    |    |    |    |
|--------------------------------|--8---6---8---6-----------------|
|1---1-----------------------3---|------------------5---6---7-8---|
|----------1-1-2-3-3-2---1-------|6---6---6---6-----------------6-|
|------------------------------1-|--------------------------------|

 |    |    |    |    |    |    |    |
|--------------------------------|--------------------------------|
|0-----0-------------------------|----------------------5---5-----|
|--------3-3---2---2-------------|----------------5-5-5-------5-5-|
|--------------------0-0---------|3-3---3-5-5---0-----------------|

 |    |    |    |    |    |    |    |
|----5---3---5---3---------------|--------------------------------|
|----------5-------2---3---4-5---|----2---3-4---5-----------------|
|3-------------3---------------3-|3-------------------------0-2-2-|
|--------------------------------|----------------------3---------|

 |    |    |    |    |    |    |    |
|------------------------2---5---|--------------------------------|
|--------2-2---3---3-5-----------|8-6-------------------------8---|
|3-----3-------------------------|------8---6---4-----------------|
|--------------------------------|------------------6-4-----------|

 |    |    |    |    |    |    |    |
|------------------------5---8---|--------------------------------|
|--------------------8-----------|--------0-1---3-----------------|
|6-------5-5---6---6-------------|1---------------------------0-0-|
|--------------------------------|----------------------1---3-----|

 |    |    |    |    |    |    |    |
|--------------------------------|--------------------------------|
|------------------------5-8---5-|3---0---1---2-2-3---------------|
|--------5-5---6---6-8-8-----8---|--1---------------------------0-|
|6-6---6-------------------------|----------------------1---3-----|

 |    |    |    |    |    |    |    |
|--------------------------------|--------------------------------|
|--------------------------------|------------------5---5-7-7-8-8-|
|--------5---5-5-------6---5-6-8-|--------5-5-6-8-----------------|
|6-------------------------------|6-----6-------------------------|

 |    |    |    |    |    |    |    |
|--------------------------------|--------------------------------|
|----------------------------5-8-|--This is where the solo starts-|
|--------5-5-5-6---6-6-8---8-----|--and that's all for now folks'-|
|6-----6-------------------------|--------------------------------|

Almost there ...

Sign in to get your own page with links to favourite songs and more. You are just one click away...

Login with Facebook Login with Google